Division Minuscula - Extraando Casa Chords & Tabs

 

Extraando Casa Chords & Tabs

Division Minuscula Chords & Tabs

Version: 1 Type: Tab 0 ratings
1 star 2 stars 3 stars 4 stars 5 stars
comments

Extraando Casa Tab

   
División Minúscula
Cursi
Extrañando casa

Acordes:
    F  A#  C  D
e|---------------|
b|---------------|
g|-----3---5--7--|
d|--3--3---5--7--|
a|--3--1---3--5--|
E|--1------------|

+++++++++++++++++++++++++++++++++++++++++++++++++++++++++++++++++++++++++

Intro

    F             A#            F             D     C 

e|----------1-1-0---------1-1-0---------1-1-0---------------------------|
b|--1-1-1---------1-1-1---------1-1-1---------3-3-3-1-1-1—--------------|
g|--------3-------------3-------------3---------------------------------|
d|----------------------------------------------------------------------|
a|----------------------------------------------------------------------|
E|----------------------------------------------------------------------|

    A             C

e|----------1-1-0-------------------------------------------------------|
b|--1-1-1---------3-----------------------------------------------------|
g|--------3-------------------------------------------------------------|
d|----------------------------------------------------------------------|
a|----------------------------------------------------------------------|
E|----------------------------------------------------------------------|

Verso
F A# F A# D C A# 

F A# F A# D C A# D C A#

Coro
F C A# 
F C A#
F C A#
D C A#

Después del coro: 
F A# F A# 

Verso 2
F A# F A# D C A#
pm. . . . 

F A# F A# D C A# D C A#
pm. . . .

Coro
F C A# 
F C A#
F C A# D C A#

Solo
    F             A#            F             D     C 
[ Tab from: http://www.guitartabs.cc/tabs/d/division_minuscula/extraando_casa_tab.html ]
e|----------1-1-0---------1-1-0---------1-1-0---------------------------|
b|--1-1-1---------1-1-1---------1-1-1---------3-3-3-1-1-1—--------------|
g|--------3-------------3-------------3---------------------------------|
d|----------------------------------------------------------------------|
a|----------------------------------------------------------------------|
E|----------------------------------------------------------------------|

    A             C

e|----------1-1-0-------------------------------------------------------|
b|--1-1-1---------3-----------------------------------------------------|
g|--------3-------------------------------------------------------------|
d|----------------------------------------------------------------------|
a|----------------------------------------------------------------------|
E|----------------------------------------------------------------------|

    F    A#      F  A#       D            C                  A# 

e|----------------------------------------------------------------------|
b|-------6-5-6-5----8-6-5----6-6-6-6-6-8--6-6-6-6-6-8-6-5-3----6-5--3---|
g|--4h5----------5--------5--5-5-5-5-5-7--5-5-5-5-5----------5--------5-|
d|----------------------------------------------------------------------|
a|----------------------------------------------------------------------|
E|----------------------------------------------------------------------|

    D            C            A#            C

e|----------------------------------------------------------------------|
b|--6-6-6-6-6-8--6-6-6-6-6-8--------------------------------------------|
g|--5-5-5-5-5-7—-5-5-5-5-5-7—-3-3-3-3-3-3-3-3—-3-2-0---0-2-3/5--5/10----|
d|---------------------------------------------------3------------------|
a|----------------------------------------------------------------------|
E|----------------------------------------------------------------------|

Coro
F C A# 
F C A#
F C A#
D C A#


e|-----------------|
b|--6-6-6-6-6-6-6--|
g|--5-5-5-5-5-5-5--|
d|-----------------|
a|-----------------|
E|-----------------|


F C A# 
F C A#
F C A#
D C A# C F
Comments