Division Minuscula - Cursi Chords & Tabs

 

Cursi Chords & Tabs

Division Minuscula Chords & Tabs

Version: 2 Type: Tab 0 ratings
1 star 2 stars 3 stars 4 stars 5 stars
comments

Cursi Tab

   
Solo
    F             A#            F             D     C 

e|----------1-1-0---------1-1-0---------1-1-0---------------------------|
b|--1-1-1---------1-1-1---------1-1-1---------3-3-3-1-1-1--------------|
g|--------3-------------3-------------3---------------------------------|
d|----------------------------------------------------------------------|
a|----------------------------------------------------------------------|
E|----------------------------------------------------------------------|

    A             C

e|----------1-1-0-------------------------------------------------------|
b|--1-1-1---------3-----------------------------------------------------|
g|--------3-------------------------------------------------------------|
d|----------------------------------------------------------------------|
a|----------------------------------------------------------------------|
E|----------------------------------------------------------------------|
[ Tab from: http://www.guitartabs.cc/tabs/d/division_minuscula/cursi_tab_ver_2.html ]
    F    A#      F  A#       D            C                  A# 

e|----------------------------------------------------------------------|
b|-------6-5-6-5----8-6-5----6-6-6-6-6-8--6-6-6-6-6-8-6-5-3----6-5--3---|
g|--4h5----------5--------5--5-5-5-5-5-7--5-5-5-5-5----------5--------5-|
d|----------------------------------------------------------------------|
a|----------------------------------------------------------------------|
E|----------------------------------------------------------------------|

    D            C            A#            C

e|----------------------------------------------------------------------|
b|--6-6-6-6-6-8--6-6-6-6-6-8--------------------------------------------|
g|--5-5-5-5-5-7-5-5-5-5-5-7-3-3-3-3-3-3-3-3-3-2-0---0-2-3/5--5/10----|
d|---------------------------------------------------3------------------|
a|----------------------------------------------------------------------|
E|----------------------------------------------------------------------|
Comments