Divididos - El 3 Chords & Tabs

 

El 3 Chords & Tabs

Divididos Chords & Tabs

Version: 1 Type: Bass Tab 0 ratings
1 star 2 stars 3 stars 4 stars 5 stars
comments

El 3 Bass Tab

Hello, i4m from argentina and i want to send you a tab of a argentinian
group
called DIVIDIDOS.the song is called "el 38". here you have the tab, thank you
very much.

the bass enter in the 3rd phrase
G|-----------------------------------------------------------------------------|
D|-----------------------------------------------------------------------------|
A|-------------------------------------2-3-4-5-5-5-5-5-5-5-5-5-5-5-5-5-3-------|
E|-0-0-1-2-3-3-3-3-3-3-3-3-3-3-3-3-3-3-----------------------------------5-3---|
(x1)

RIFF one time:
G|------------------------------------------------------|
D|---------------------------------5--------------------|
A|-7-7-7-5----5---5---5---5-7----7---7-5----5---5---5-7-|
E|----------7---7---7---7-----------------7---7---7-----|

Verse:
[ Tab from: http://www.guitartabs.cc/tabs/d/divididos/el_3_btab.html ]
G|--------------------------------|
D|--------------------------------|
A|-.7--7-7-5-5-5--------------5---|
E|----------------3-3-3---7-7---7-|


2CHORUS

G|-------------------------------------------------------------7-7-5-5-4---|\-|
D|---------------------------------------------4-4-5-5-6-6-7-7-----------7----|
A|-----------------------------------2-3-4-5-5--------------------------------|
E|-0-1-2-3-3-3-3-3-3-3-3-3-3-3-3-3-3------------------------------------------|

despues hace:
G|---------------------------------------------------------------| \
D|---------------------------------------------------------------|
A|---------------------------2-3-4-5-5-5/4-5-5-5/4-5-5-5/4-5-3---|
E|-3-3-3-3-3-3-3-3-3-3-3-3-3-----------------------------------5-| /
(X3)

Riff.(X2)
If you have a question write me at nicopasetti@usa.net
Comments