Divididos - Capo Capon Chords & Tabs

 

Capo Capon Chords & Tabs

Divididos Chords & Tabs

Version: 1 Type: Bass Tab 0 ratings
1 star 2 stars 3 stars 4 stars 5 stars
comments

Capo Capon Bass Tab

   
Intro con slap y pop
G|-----|------------------|
D|-----|---4-2------------|
A|-----|-------4----------|
E|-14\-|-2--------0/2-0/2-| x3
   s     s p p p  s   s

G|------------------|
D|---4-2------------|
A|-------4~---4~/---|
E|-2----------------|
   s p p p    p

Verso
G|-----------------------------|-------------------------------|
D|-/12h14-12----12h14\---------|-/12h14-12----12h14\-----------|
A|-----------14----------------|-----------14------------------|
E|---------------------0-2-3-3-|---------------------12-10-7-7-|
                       s s s s                       s  s  s s

G|-----------------------------|-------------------------------|
D|-/12h14-12----12h14\---------|-/12h14-12----12h14\-----------|
A|----------14-----------------|-----------14------------------|
E|---------------------0-2-3-3-|-------------------------------|
                       s s s s                       
       
      Coro (pueden hacerlo con slap y pop tambien)
G|---|-------------------------------------------------|-----------------|
D|---|--9--9----7---5---4--4----4--4----9--9----7---5--|--4-2------------|
A|---|-------------------------------------------------|------4----------|
E|023|-7-77-7775-553-332-22-2222-22-0237-77-7775-553-33|2--------0/2-0/2-|
                                                          s p p p  s   s

Verso x1

Coro 
G|---|-------------------------------------------------|
D|---|--9--9----7---5---4--4----4--4----9--9----7---5--|
A|---|-------------------------------------------------|
E|023|-7-77-7775-553-332-22-2222-22-0237-77-7775-553-33|
                                                          

G|-------------------------------|
D|--4-2--------------4-2---------|
A|------4----------------4444444-|
E|2--------0/2-0/2-2-------------|
  s p p p  s   s   s p p s                                                  

Puente ('Voy a nadar...') esta es la base, recomiendo adornar con octavas
G|----------------------------------------------------------------|
D|----------------------------------------------------2-0---------|
A|--------------------------------------------------------2-0-----|
E|-5-5-5-5-5-5-5-5-4-4-4-4-4-4-4-4-7-7-7-7-7-7-7-7--0---------023-|
[ Tab from: http://www.guitartabs.cc/tabs/d/divididos/capo_capon_btab.html ]
G|-----------------------------------------------------------------|
D|---------------------------------------7----7---------2-0--------|
A|----------------------------------------------------------2-0----|
E|-5-5-5-5-5-5-5-5-4-4-4-4-4-4-4-4-7-7-7---7-7---7--0--------------|

Verso x 1

Coro
G|---|-------------------------------------------------|
D|---|--9--9----7---5---4--4----4--4----9--9----7---5--|
A|---|-------------------------------------------------|
E|023|-7-77-7775-553-332-22-2222-22-0237-77-7775-553-33|
                                                          

G|----------------------------------------------------------------|
D|--4-2--------------4-2--------------4-2--------------4-2--------|
A|------4----------------4----------------4----------------444444-|
E|2--------0/2-0/2-2--------0/2-0/2-2--------0/2-0/2-2------------|
  s p p p  s   s   s p p p  s   s   s p p p  s   s   s p p s    

Solo: les doy los tonos, de nuevo queda en ustedes agregarles octavas
o hacer lo que quieran con ellos (pueden hacer slap tambien)
G|---------------------------------|
D|---------------------------------|
A|---------------------------------|
E|-0-0-0-0-0-0-0-0-5-5-5-5-7-7-9-9-| x5

G|---------------------------------|
D|---------------------------------|
A|---------------------------------|
E|-0-0-0-0-0-0-0-0-5---------------|

Solo de bateria (al comienzo):
G|-----------|
D|-----------|
A|-----------|
E|-12-9-7-12-|
   s  s s s

De nuevo a la intro
G|-----|------------------|
D|-----|---4-2------------|
A|-----|-------4----------|
E|-14\-|-2--------0/2-0/2-| x3
   s     s p p p  s   s

G|--------------------------|
D|---4-2--------------------|
A|-------4~-----------------|
E|-2--------0/2-0/2-0/2-0/2-|
   s p p p  s   s   s   s

Coro final:
G|------------------------------------------------------------------------|
D|--9--9----7---5-----4-2------------------9--9----7---5---4--4----4--4---|
A|------------------------4-----------------------------------------------|
E|-7-77-7775-553-332----------2-2-3-4-5-6-7-77-7775-553-332-22-2222-22-22-|
 
G|---------------------------------------------------------|
D|--9--9----7---5---4-2--------------------9--9----7---5---|
A|----------------------4-2--------------------------------|
E|-7-77-7775-553-332--------4-2-2-3-4-5-6-7-77-7775-553-33-|

G|---|
D|---|
A|---|
E|-2-|
Comments