Divididos - Basta Fuerte Chords & Tabs

 

Basta Fuerte Chords & Tabs

Divididos Chords & Tabs

Version: 1 Type: Bass Tab 0 ratings
1 star 2 stars 3 stars 4 stars 5 stars
comments

Basta Fuerte Bass Tab

   
Intro
G|-------------------------------|x4
D|-------------------------------|
A|-5-4-3-2-55--5-4-3-2-----------|
E|---------------------2h1p2-2h3-|

Verso 1
G|-------------------------------|x8
D|-------------------------------|
A|-5-4-3-2-55--5-4-3-2-----------|
E|---------------------2h1p2-2h3-|

Pre-Parte Hablada
G|---|
D|---|
A|---|
E|-0-|

**Parte Hablada**
[ Tab from: http://www.guitartabs.cc/tabs/d/divididos/basta_fuerte_btab.html ]
Verso 1
G|-------------------------------|x8
D|-------------------------------|
A|-5-4-3-2-55--5-4-3-2-----------|
E|---------------------2h1p2-2h3-|

Solo
G|---9----9--9-7-6-----|x12
D|-----------------7-5-|
A|-77--777-------------|
E|---------------------|

Pre-Parte Hablada
G|---|
D|---|
A|---|
E|-0-|

**Parte Hablada**

Verso 2
G|---9----9--9-7-6-----|x8
D|-----------------7-5-|
A|-77--777-------------|
E|---------------------|

Final
G|---------|
D|---------| **Hasta el Final**
A|---------|
E|-5-0-3-0-|
Comments