Divididos - Amor Japones Chords & Tabs

 

Amor Japones Chords & Tabs

Divididos Chords & Tabs

Version: 1 Type: Bass Tab 0 ratings
1 star 2 stars 3 stars 4 stars 5 stars
comments

Amor Japones Bass Tab

INTRO
G|--7/9*----5/7*----3/5*----5-7-8*--|
D|----------------------------------|
A|----------------------------------|
E|----------------------------------|
  2 veces

VERSO: x2
G|--21--21-20-21--21-20-21--21-20-21-20-21-|
D|-----------------------------------------|
A|-----------------------------------------|
E|-----------------------------------------|

G|--19--19-18-19--19-18-19--19-18-19-18-19-|
D|-----------------------------------------|
A|-----------------------------------------|
E|-----------------------------------------|

G|--17--17-16-17--17-16-17--17-16-17-16-17-|
D|-----------------------------------------|
A|-----------------------------------------|
E|-----------------------------------------|

G|--16--16-15-16--16-15-16--16-15-16-15-16/|
D|-----------------------------------------|
A|-----------------------------------------|
E|-----------------------------------------|
[ Tab from: http://www.guitartabs.cc/tabs/d/divididos/amor_japones_btab.html ]
ESTRIBILLO: x1
G|---------------9--------9---------------------5-5---5-5---|
D|-------------5---10~--7---10~-------------5h7-----7-----7-|
A|---------5h7--------------------------5h7-----------------|
E|--5-5-5------------------------5-5-5----------------------|

G|-----------------3-3---5-3~-----------------3h4p3---------|
D|-------------3h5-----5------------------3h5------532------|
A|---------3h5------------------------3h5-------------542---|
E|--3-3-3-----------------------3-3-3--------------------53-|

G|-----------------2-2---4-2~-----------------2-2---2-2-----|
D|-------------2h4-----4------------------2h4-----4-----4---|
A|---------2h4------------------------2h4-------------------|
E|--2-2-2----------------------2-2-2------------------------|

G|----------------------------------------------------7/////|
D|---7*-----------------------6\5*--------------------------|
A|----------------------------------------------------------|
E|--5-------------------------------------------------------|

VERSO 2: verso x2
ESTRIBILLO 2: estribillo x1
SOLO: VERSO x2
ESTRIBILLO 3: estribillo x1
Para el final, tocar la intro x1.
Comments