Disturbed - Want Chords & Tabs

 

Want Chords & Tabs

Disturbed Chords & Tabs

Version: 2 Type: Tab 0 ratings
1 star 2 stars 3 stars 4 stars 5 stars
comments

Want Tab

Band- Disturbed
Album- The Sickness
Song- Want
Tuning- Down 1/2 Step

Intro/Chorus
|----------------------------------------------------|
|----------------------------------------------------|
|-4-4-----4--4-----2-4-5-4-4-----4-------------------|
|-2-2-----2--2-----0-2-3-2-2-----2-------------------|
|-2-2-----2--2-----0-2-3-2-2-----2-------------------|
|-0---0-0------0-0-------0---0-0---0-0-0-0-0-0-0-0-0-|
P.M.  ...      ...           ...   .................

Verse
|----------------------------------------------------------|
|-----------7*-9^-----------------------7*-9^--------------|
|---------7*----------------7---------7*----------------7--|
|---------------------------7---------------------------7--|
|-7-7-5-7---------5-7-7-5-7---7-7-5-7---------5-7-7-5-7----|
|----------------------------------------------------------|
P.M......         .........   .......         .........

|-----------------------------------------------------------5*-|
|------------7*-9^------------------------7*-9^-----------5*---|
|---------7*-----------------7---------7*----------------------|
|----------------------------7----------------------------7*---|
|-7-7-5-7----------5-7-7-5-7---7-7-5-7----------5-7-7-5-7------|
|--------------------------------------------------------------|
P.M......          .........   .......          .........
[ Tab from: http://www.guitartabs.cc/tabs/d/disturbed/want_tab_ver_2.html ]
Fill 1
|---------------------------------|
|-----------7*-9^-----------------|
|---------7*----------------------|
|---------------------------------|
|-7-7-5-7---------5-7-7-7-5-------|
|---------------------------/12\--|
P.M......         .........

Bridge
|------------------------------------------------------------|
|------------------------------------------------------------|
|-------5*---5*-------5*---5*-------5*---5*-----------5*-----|
|-3-3-3----5*---2-2-2----5*---3-3-3----5*---2-2-2-x-x--------|
|-2-2-2---------2-2-2---------2-2-2---------2-2-2-x-x--------|
|-0-0-0---------0-0-0---------0-0-0---------0-0-0-x-x----1^--|

|------------------------------------|
|---------------------------------3--|
|-5-------------------------------0--|
|-5---------------------------2-1-0--|
|-3--2------------------------3-2----|
|------3-2--3-2--3-2-0--0-2-3-----3--|

|--------------------------------------------|
|--------------------------------------------|
|-4-4-----4-4-----2-4-5--------------------9-|
|-2-2-----2-2-----0-2-3-2-2--2-2--2-2--2-2---|
|-2-2-----2-2-----0-2-3-2-2--2-2--2-2--2-2---|
|-0---0-0-----0-0-------0-0--0-0--0-0--0-0---|
P.M.  ...     ...

Outro

|---------------------------------------------------|
|---------------------------------------------------|
|-4-4-----4-4-----2-4-5-----------------------------|
|-2-2-----2-2-----0-2-3-----------------------------|
|-2-2-----2-2-----0-2-3-2-2--2-2--2-2--2-2-x--x--x--|
|-0---0-0-----0-0-------0-0--0-0--0-0--0-0-x--x--x--|
P.M.  ...     ...

|-----------------------------------|
|-----------------------------------|
|----------------------------2-4-5--|
|-2--2----------2--2---------0-2-3--|
|-2--2----------2--2---------0-2-3--|
|-0--0-0-0-0-0--0--0-0-0-0-0--------|

This is 100%( from Disturbed tab book). Oh, and this song rocks!!!!!
Comments