Disturbed - Want Chords & Tabs

 

Want Chords & Tabs

Disturbed Chords & Tabs

Version: 1 Type: Bass Tab 0 ratings
1 star 2 stars 3 stars 4 stars 5 stars
comments

Want Bass Tab

   
Tuning-Bb,Eb,Ab,Db,Gb

Intro
Gb-------------------------------------------------------------|
Db-------------------------------------------------------------|
Ab-------------------------------------------------------------|
Eb-0---0-0-0-0----0-0-0---------0---0-0-0-0---0-0-0-0-0-0-0-0--|
Bb----------------------3-5-6----------------------------------|


Verse
-------------------------------------------------------------------|
-----------------------7-5---7--------------------------3-2---2----|
-7-7-7-7-7-7-5-7-7-5-7-----7---7--3-3-3-3-3-3-3-3-3-2-3-----3---3--|
-------------------------------------------------------------------|
-------------------------------------------------------------------|

-------------------------------------------------------------------|
-------------------------4--------------------------------3-3-3-3--|
-----------------------4---4-2-------------------------------------|
-2-2-2-2-2-2-0-2-2-0-2---------2--1-1-1-1-1-1-0-1-1-0-1-1----------|
-------------------------------------------------------------------|

------------9---9---------------9--10-------------------9---9-----|
----------8---8---8-----------8--------9--------------8---8---8---|
-------7-------------------7--------------9--------7--------------|
-0--0----------------0--0--------------------0--0-----------------|
------------------------------------------------------------------|
[ Tab from: http://www.guitartabs.cc/tabs/d/disturbed/want_btab.html ]
---------------9---9---9-/-10--|
----------8--8---8---8---------|
-------7-----------------------|
-0--0--------------------------|
-------------------------------|

-------------10-9-8--------------|
----------8---------10-9-8-------|
-------7-------------------10-9--|
-0--0----------------------------|
---------------------------------|

-----------------------------------------------------------------------|
-----------------------------------------------------------------------|
----------------------------------------------------------------333333-|
------------------3--2--2--3--2--0--0--0--2--3-------------------------|
-1--1--1--0--0--0------------------------------1--1--1--0--0--0--------|

--------------------------------------------------------|
--------------------------------------------------------|
--------------------------------------------------------|
-0--0-0-0-0---0-0-0--------0-0---0-0---0-0---0-0--------|
--------------------3-5-6-------------------------------|

---------------------------------|
---------------------------------|
---------------------------------|
-0-0-0-0-0-0-0-0-0-0-0-0---------|
-------------------------3-5-6---|

---------------------------------------------|
---------------------------------------------|
---------------------------------------------|
-0-0--0-0--0-0-0-0-0---0-0--0-0--0-0-0-0-0---|
---------------------------------------------|

Thanks, please rate it after you learn it.
Comments