Disturbed - Walk Chords & Tabs

 

Walk Chords & Tabs

Disturbed Chords & Tabs

Version: 1 Type: Bass Tab 0 ratings
1 star 2 stars 3 stars 4 stars 5 stars
comments

Walk Bass Tab

   
Band- Disturbed
Song- Walk

Swing feel ( ie:  e e = q   e )
{ 3 }

Drop D Tuning (D,A,D,G)

|-----|-----|-------------------------|---------------------|
|-----|-----|-------------------------|---------------------|
|-----|-----|-------------------------|------------------x\-|
|-----|-----|-0-0-0-0-0-0-0-0-0-0-0-0-|-0-0-0-0-0-0---x\----|
W     W    e e e e e e e e e e e e   e e e e e e e q  q
{ 3 } { 3 } { 3 } { 3 }   { 3 } { 3 } {3}

|-----------------------|---------------------|-----|-------------------||
|-----------------------|---------------------|--%--|-------------------||
|-----------------------|---------------------|-----|----------------x\-||
|-0---0-2-1-0---0-2-1-0-|---0-2-1-0---0-2-1-0-|-----|---0-2-1-0---x\----||
e e e e e e e e e e e   e e e e e e e e e e         e e e e e e q  q
{ 3 } { 3 }     { 3 }       { 3 }     { 3 }             { 3 } {3}

||--------------------|-------------------|-------------------|
||o-------------------|-------------------|-------------------|
||o-----------------1-|-------------------|-----------------4-|
||--0---0-2-1-0---0---|-0---0-2-1-0---0-6-|-0---0-2-1-0---0---|
e e e e e e e e q   e e e e e e e e q   e e e e e e e e q
{ 3 } { 3 }         { 3 } { 3 }         { 3 } { 3 }

2x
|--------------------------||-------------------------||
|-------------------------o||-------------------------||
|-------------------------o||-------------------------||
|-0-0-0-1-0-3-0-4-0-3-0-1--||-0-0-0-1-0-3-0-4-0-3-0-1-||
e e e e e e e e e e e e     e e e e e e e e e e e e
{ 3 } { 3 } { 3 } { 3 }     { 3 } { 3 } { 3 } { 3 }

verse 1                                                              2x
||------------------------|---------------------|-----|------------------||
||o-----------------------|---------------------|-----|-----------------o||
||o-----------------------|---------------------|--%--|-------------4-4-o||
||--0---0-2-1-0---0-2-1-0-|---0-2-1-0---0-2-1-0-|-----|---0-2-1-0--------||
e e e e e e e e e e e   e e e e e e e e e e         e e e e e e e q
{ 3 } { 3 }     { 3 }       { 3 }     { 3 }             { 3 }

pre-chorus                                                2x
||-----|--------|-----------------------|----------------------||
||o----|--------|-----------------------|---------------------o||
||o-3--|--------|-----------------------|---------------------o||
||-----|--6--7--|-0---0-2-1-0---0-2-1-0-|---0-2-1-0---0-2-1-0--||
w     h  h    e e e e e e e e e e e   e e e e e e e e e e
{ 3 } { 3 }     { 3 }       { 3 }     { 3 }

|---------|---------|---------|----------------||
|---------|---------|---------|----------------||
|--3------|---------|---------|----------------||
|---------|--6------|--3------|--2------1------||
w         w         w         h      h

chorus
||--------------------|-------------------|-------------------|
||o-------------------|-------------------|-------------------|
||o-----------------1-|-------------------|-----------------4-|
||--0---0-2-1-0---0---|-0---0-2-1-0---0-6-|-0---0-2-1-0---0---|
e e e e e e e e q   e e e e e e e e q   e e e e e e e e q
{ 3 } { 3 }         { 3 } { 3 }         { 3 } { 3 }

2x
|--------------------------||-------------------------||
|-------------------------o||-------------------------||
|-------------------------o||-------------------------||
|-0-0-0-1-0-3-0-4-0-3-0-1--||-0-0-0-1-0-3-0-4-0-3-0-1-||
e e e e e e e e e e e e     e e e e e e e e e e e e
{ 3 } { 3 } { 3 } { 3 }     { 3 } { 3 } { 3 } { 3 }

|-----------------------|---------------------|-----|-------------------||
|-----------------------|---------------------|--%--|-------------------||
|-----------------------|---------------------|-----|----------------x\-||
|-0---0-2-1-0---0-2-1-0-|---0-2-1-0---0-2-1-0-|-----|---0-2-1-0---x\----||
e e e e e e e e e e e   e e e e e e e e e e         e e e e e e q  q
{ 3 } { 3 }     { 3 }       { 3 }     { 3 }             { 3 } {3}

verse 2                                                              2x
||------------------------|---------------------|-----|------------------||
||o-----------------------|---------------------|-----|-----------------o||
||o-----------------------|---------------------|--%--|-------------4-4-o||
||--0---0-2-1-0---0-2-1-0-|---0-2-1-0---0-2-1-0-|-----|---0-2-1-0--------||
e e e e e e e e e e e   e e e e e e e e e e         e e e e e e e q
{ 3 } { 3 }     { 3 }       { 3 }     { 3 }             { 3 }

pre-chorus                                                2x
||-----|--------|-----------------------|----------------------||
||o----|--------|-----------------------|---------------------o||
||o-3--|--------|-----------------------|---------------------o||
||-----|--6--7--|-0---0-2-1-0---0-2-1-0-|---0-2-1-0---0-2-1-0--||
w     h  h    e e e e e e e e e e e   e e e e e e e e e e
{ 3 } { 3 }     { 3 }       { 3 }     { 3 }
[ Tab from: http://www.guitartabs.cc/tabs/d/disturbed/walk_btab.html ]
|---------|---------|---------|----------------||
|---------|---------|---------|----------------||
|--3------|---------|---------|----------------||
|---------|--6------|--3------|--2------1------||
w         w         w         h      h

chorus
||--------------------|-------------------|-------------------|
||o-------------------|-------------------|-------------------|
||o-----------------1-|-------------------|-----------------4-|
||--0---0-2-1-0---0---|-0---0-2-1-0---0-6-|-0---0-2-1-0---0---|
e e e e e e e e q   e e e e e e e e q   e e e e e e e e q
{ 3 } { 3 }         { 3 } { 3 }         { 3 } { 3 }

4x
|--------------------------||-------------------------|-----|-----||
|-------------------------o||-------------------------|-----|-----||
|-------------------------o||-------------------------|--%--|--%--||
|-0-0-0-1-0-3-0-4-0-3-0-1--||-0-0-0-1-0-3-0-4-0-3-0-1-|-----|-----||
e e e e e e e e e e e e     e e e e e e e e e e e e
{ 3 } { 3 } { 3 } { 3 }     { 3 } { 3 } { 3 } { 3 }

guitar solo
|-------------------------|--------------------|-------------------------|
|-------------------------|--------------------|-------------------------|
|-------------------------|-----------------/x-|-------------------------|
|-0-0-0-1-0-3-0-0-0-1-0-3-|-0-0-0-1-0-0-3-2----|-0-0-0-1-0-3-0-0-0-1-0-3-|
e e e e e e e e e e e e   e e e e e e q q  q   e e e e e e e e e e e e
{ 3 } { 3 } { 3 } { 3 }   { 3 } { 3 } {  3 }   { 3 } { 3 } { 3 } { 3 }

|-------------------------|-------------------------|--------------------|
|-------------------------|-------------------------|--------------------|
|-------------5-3-0-0-----|-------------------------|-----------------/x-|
|-0-0-0-3-0-0---------5-3-|-0-0-0-0-3-3-0-0-0-0-3-3-|-0-0-0-0-0-0-3-2----|
e e e e e e e e e e e e   e e e e e e e e e e e e   e e e e e e q q  q
{ 3 } { 3 } { 3 } { 3 }   { 3 } { 3 } { 3 } { 3 }   { 3 } { 3 } {  3 }

|-------------------------|-------------------------|
|-------------------------|-------------------------|
|-------------------------|-------------5-5-5-5-5-5-|
|-0-0-0-0-3-3-0-0-0-0-3-3-|-0-0-0-0-0-0-------------|
e e e e e e e e e e e e   e e e e e e e e e e e e
{ 3 } { 3 } { 3 } { 3 }   { 3 } { 3 } { 3 } { 3 }

|-------------------------|--------------------|-------------------------|
|-------------------------|--------------------|-------------------------|
|-------------------------|-----------------/x-|-------------------------|
|-5-5-5-5-5-5-5-8-5-8-5-7-|-5-5-5-5-5-5-8-5----|-5-5-5-5-5-5-5-8-5-8-5-7-|
e e e e e e e e e e e e   e e e e e e q q  q   e e e e e e e e e e e e
{ 3 } { 3 } { 3 } { 3 }   { 3 } { 3 } {  3 }   { 3 } { 3 } { 3 } { 3 }

|-------------------------|-------------------------|-------------------|
|-------------5-5-5-5-5-5-|-------------------------|-------------------|
|-------------------------|---0-0-3-0-0---0-0-3-0-0-|---0-0-3-0-0-1-0-0-|
|-5-5-5-5-5-5-------------|-5-----------5-----------|-5-----------------|
e e e e e e e e e e e e   e e e e e e e e e e e e   e e e e e e q q q
{ 3 } { 3 } { 3 } { 3 }   { 3 } { 3 } { 3 } { 3 }   { 3 } { 3 } { 3 }

|-------------------------|-------------2-2-2-2-2-2-|--------||
|-------------------------|-------------------------|--------||
|---0-0-3-0-0---0-0-3-0-0-|---0-0-0-0-0-------------|--------||
|-5-----------5-----------|-5-----------------------|-0------||
e e e e e e e e e e e e   e e e e e e e e e e e e   w
{ 3 } { 3 } { 3 } { 3 }   { 3 } { 3 } { 3 } { 3 }

|-----|-----|-------------------------|---------------------||
|-----|-----|-------------------------|---------------------||
|-----|-----|-------------------------|------------------x\-||
|-----|-----|-0-0-0-0-0-0-0-0-0-0-0-0-|-0-0-0-0-0-0---x\----||
W     W    e e e e e e e e e e e e   e e e e e e e q  q
{ 3 } { 3 } { 3 } { 3 }   { 3 } { 3 } {3}

chorus
||--------------------|-------------------|-------------------|
||o-------------------|-------------------|-------------------|
||o-----------------1-|-------------------|-----------------4-|
||--0---0-2-1-0---0---|-0---0-2-1-0---0-6-|-0---0-2-1-0---0---|
e e e e e e e e q   e e e e e e e e q   e e e e e e e e q
{ 3 } { 3 }         { 3 } { 3 }         { 3 } { 3 }

4x
|--------------------------||-------------------------||
|-------------------------o||-------------------------||
|-------------------------o||-------------------------||
|-0-0-0-1-0-3-0-4-0-3-0-1--||-0-0-0-1-0-3-0-4-0-3-0-1-||
e e e e e e e e e e e e     e e e e e e e e e e e e
{ 3 } { 3 } { 3 } { 3 }     { 3 } { 3 } { 3 } { 3 }

outro                   repeat & fade
||-----------------------||
||o---------------------o||
||o---------------------o||
||--0-0-0-1-0-0-0-0-1-0--||
e e e e e e e e e e
{ 3 }     { 3 }
Comments