Disturbed - Voices Chords & Tabs

 

Voices Chords & Tabs

Disturbed Chords & Tabs

Version: 9 Type: Tab 0 ratings
1 star 2 stars 3 stars 4 stars 5 stars
comments

Voices Tab

Artist: Disturbed
Song: Voices
Album: The Sickness
       Giant Records
Email: rexxdoggy@yahoo.com


Tuning: DADGBe

Clean w/flange effect
Intro x 4
|----------------|
|----------------|
|----------------|
|11----9-11----9-|
|9-----9-10----10|
|9-----9-9-----9-|

main riff x 2
|------------------------|------------------------|
|------------------------|------------------------|
|----------------5-5-5-5-|----------------10~~~~~~|
|7h9-7h9-7h9-7h9-3-3-3-3-|7h9-7h9-7h9-7h9-8~~~~~~~|
|7h9-7h9-7h9-7h9-3-3-3-3-|7h9-7h9-7h9-7h9-8~~~~~~~|
|7h9-7h9-7h9-7h9-3-3-3-3-|7h9-7h9-7h9-7h9-8~~~~~~~|

|------------------------|------------------------|
|------------------------|------------------------|
|----------------5-5-5-5-|----------------x-x-x-x-|
|7h9-7h9-7h9-7h9-3-3-3-3-|7h9-7h9-7h9-7h9-x-x-x-x-|
|7h9-7h9-7h9-7h9-3-3-3-3-|7h9-7h9-7h9-7h9-x-x-x-x-|
|7h9-7h9-7h9-7h9-3-3-3-3-|7h9-7h9-7h9-7h9-x-x-x-x-|

verse x 4...(The last part has some harmonics. I don't know???)
|------------------------|------------------------|
|------------------------|------------------------|
|------------------------|------------------------|
|------------------------|------------------------|
|0h2-0h2-0h2-0h2---------|0h2-0h2-0h2-0h2-8~~~~~~~|
|----------------3-3-3-3-|------------------------|

chorus x 4
|----------------|----------------|
|----------------|----------------|
|----------------|----------------|
|4---4-444-7-7---|0---0-007h9-9-9-|
|4---4-444-7-7---|0---0-007h9-9-9-|
|4---4-444-7-7---|0---0-007h9-9-9-|
[ Tab from: http://www.guitartabs.cc/tabs/d/disturbed/voices_tab_ver_9.html ]
Bridge  x 3                  last part (4th time)
|-------------------|	|---------------------|
|-------------------|	|---------------------|
|-------------------|	|-----------10--10--10|
|9---7-10---4---5-7-|	|9---7-10---10--10--10|
|9---7-10---4---5-7-|	|9---7-10---8---8--8--|
|9---7-10---4---5-7-|	|9---7-10---8---8--8--|

|-----------------------------|--------------------------|
|-----------------------------|--------------------------|
|-----------------------------|--------------------------|
|-----------------------------|--------------------------|
|-----------------------------|-----------------------8--|
|9--12p9-10p9-12p9-10p9-10h12-|9--12p9-10p9-12p9-10p9----|

Bridge  (b)x 3
|-----------------------------|--------------------------|
|-----------------------------|--------------------------|
|-----------------------------|-----------------------10-|
|9--12p9-10p9-12p9-10p9-10h12-|9--12p9-10p9-12p9-10p9-10-|
|9--12p9-10p9-12p9-10p9-10h12-|9--12p9-10p9-12p9-10p9-8--|
|9--12p9-10p9-12p9-10p9-10h12-|9--12p9-10p9-12p9-10p9-8--|

Bridge (c)x 1
|-----------------------------|--------------------------|
|-----------------------------|--------------------------|
|-----------------------------|--------------------------|
|9--12p9-10p9-12p9-10p9-10h12-|9--12p9-10p9--------------|
|9--12p9-10p9-12p9-10p9-10h12-|9--12p9-10p9--------------|
|9--12p9-10p9-12p9-10p9-10h12-|9--12p9-10p9--------------|

Outro x 1
|------------------------|------------------------|
|------------------------|------------------------|
|----------------5-5-5-5-|----------------10~~~~~~|
|7h9-7h9-7h9-7h9-3-3-3-3-|7h9-7h9-7h9-7h9-8~~~~~~~|
|7h9-7h9-7h9-7h9-3-3-3-3-|7h9-7h9-7h9-7h9-8~~~~~~~|
|7h9-7h9-7h9-7h9-3-3-3-3-|7h9-7h9-7h9-7h9-8~~~~~~~|

|------------------------|------------------------|
|------------------------|------------------------|
|----------------5-5-5-5-|------------------------|
|7h9-7h9-7h9-7h9-3-3-3-3-|7h9-7h9-7h9-7h9---------|
|7h9-7h9-7h9-7h9-3-3-3-3-|7h9-7h9-7h9-7h9---------|
|7h9-7h9-7h9-7h9-3-3-3-3-|7h9-7h9-7h9-7h9---------|
Comments