Disturbed - Voices Chords & Tabs

 

Voices Chords & Tabs

Disturbed Chords & Tabs

Version: 8 Type: Tab 0 ratings
1 star 2 stars 3 stars 4 stars 5 stars
comments

Voices Tab

Band- Disturbed
Album- The Sickness
Song- Voices


Tuning- Drop D, tune down 1/2 step

Intro- Clean
|-------------------------------------------|
|-------------------------------------------|
|-------------------------------------------|
|-11-9-11-9--11-9-11-9--11-9-11-9--11-9-11--|
|-9--9-10-10-9--9-10-10-9--9-10-10-9--9-10--|
|-9--9-9--9--9--9-9--9--9--9-9--9--9--9-9---|

|-----------------------------------------|
|-----------------------------------------|
|-----------------------------------------|
|-----------------------------------------|
|-----------------------------------------|
|-7-9-7-9-7-9-7-9-3-7-9-7-9-7-9-7-9-15----|

Verse
|---------------------------------------------|
|--------------------------------------7*-----|
|-----------------------------------7*--------|
|-----------------------------------------9---|
|-----------------------------------------8---|
|-7-9-7-9-7-9-7-9-3-7-9-7-9-7-9-7-9-----------|
[ Tab from: http://www.guitartabs.cc/tabs/d/disturbed/voices_tab_ver_8.html ]
Chorus
|------------2---------|
|------------2---------|
|-7-7-----4--4---------|.......Repeat a few times
|-7-7-----4--4---------|
|-5-5-----2--2---------|
|----------------------|

Fill- Clean
|-----------------------|
|-----------------------|
|-----------------------|
|-11-9-11-9--11-9-11----|.......After this play verse and chorus again
|-9--9-10-10-9--9-10----|
|-9--9-9--9--9--9-9-----|

Bridge
|----------------------------------|
|----------------------------------|
|----------------------------------|
|-9-7-10-4-5-7-9-7-10-3-3-3--------|
|-9-7-10-4-5-7-9-7-10-3-3-3--------|
|-9-7-10-4-5-7-9-7-10-3-3-3--------|
P.M                   .....

|-----------------------------------------------------|
|-----------------------------------------------------|
|-----------------------------------------------10----|
|-----------------------------------------------9-----|
|-----------------------------------------------8-----|
|-9h12-9h10-9h12-9h10-10h12-9h12-9h10-9h12-9h10-------|

That's the whole song. I'm 100% sure this is correct. I'm going to eventually 
put up the rest of The Sickness. Enjoy!!!
Comments