Disturbed - Voices Chords & Tabs

 

Voices Chords & Tabs

Disturbed Chords & Tabs

Version: 2 Type: Tab 0 ratings
1 star 2 stars 3 stars 4 stars 5 stars
comments

Voices Tab

group:Disturbed
song:Voices
album:Down With the Sickness

the song is played in dropped-D (DADGBE)


this is how its played.


E------------------------------------------------------------
B------------------------------------------------------------
G------------------------------------------------------------
D-11------9---11------9---11------9--------------------------
A--9------9---10-----10---10-----10--------------------------
D--9------9----9------9----9------9--------------------------
that is the intro

guitar2 at the same time gradually come in with this



E------------------------------------------------------------
B------------------------------------------------------------
G------------------------------------------------------------
D-7-9--7-9--7-9--7-9---3-----------7-9--7-9--7-9--7-9---X-X-X-X
A-7-9--7-9--7-9--7-9---3--repeat---7-9--7-9--7-9--7-9---X-X-X-X
D-7-9--7-9--7-9--7-9---3-----------7-9--7-9--7-9--7-9---X-X-X-X



E------------------------------------------------------------
B------------------------------------------------------------
G------------------------------------------------------------
D-7-9--7-9--7-9--7-9---3----X----------7-9--7-9--7-9--7-9---X-X-X
A-7-9--7-9--7-9--7-9---3----X--repeat--7-9--7-9--7-9--7-9---X-X-X
D-7-9--7-9--7-9--7-9---3----X----------7-9--7-9--7-9--7-9---X-X-X



this is the verses 1 and 2
E------------------------------------------------------------
B------------------------------------------------------------
G------------------------------------------------------------
D------------------------------------------------------------
A------------------------------------------------------------
D-7-9--7-9--7-9--7-9--3-----3---7-9--7-9--7-9--7-9----15-15-15




E------------------------------------------------------------
B------------------------------------------------------7-----
G---------------------------------------------------7--7--4--
D---------------------------------------------------7-----3--
A---------------------------------------------------------3--
D-7-9--7-9--7-9--7-9--3-3--3---7-9--7-9--7-9--7-9------------





E------------------------------------------------------------
B------------------------------------------------------------
G------------------------------------------------------------
D-7-9--7-9--7-9--7-9---3-3---3----7-9--7-9--7-9--7-9---15-15---15
A-7-9--7-9--7-9--7-9---3-3---3----7-9--7-9--7-9--7-9---15-15---15
D-7-9--7-9--7-9--7-9---3-3---3----7-9--7-9--7-9--7-9---15-15---15



E------------------------------------------------------------
B------------------------------------------------------------
G------------------------------------------------------------
D-7-9--7-9--7-9--7-9---3---7-9--7-9--7-9--7-9---7------------
A-7-9--7-9--7-9--7-9---3---7-9--7-9--7-9--7-9---7------------
D-7-9--7-9--7-9--7-9---3---7-9--7-9--7-9--7-9---7------------




this is the chorus
E------------------------------------------------------------
B------------------------------------------------------------
G------------------------------------------------------------
D-0----0-0---12-4---4-9----9---9-9--7-9---0-0----------------
A-0----0-0---12-4---4-9----9---9-9--7-9---0-0---repeat this 3 times
D-0----0-0---12-4---4-9----9---9-9--7-9---0-0----------------


[ Tab from: http://www.guitartabs.cc/tabs/d/disturbed/voices_tab_ver_2.html ]
E------------------------------------------------------------
B------------------------------------------------------------
G------------------------------------------------------------
D-9---7---10---4---5---7-------------------------------------
A-9---7---10---4---5---7--repeat-----------------------------
D-9---7---10---4---5---7-------------------------------------




E------------------------------------------------------------
B------------------------------------------------------------
G----------------------------------------4--4---4-----------------4--4---4
D-9---7---10---4---5---7----9---7---10---3--3---3----9---7---10---3--3---3
A-9---7---10---4---5---7----9---7---10---3--3---3----9---7---10---3--3---3
D-9---7---10---4---5---7----9---7---10---3--3---3----9---7---10---3--3---3







E------------------------------------------------------------
B------------------------------------------------------------
G------------------------------------------------------------
D-------------------------------------------------------------------------9
A-------------------------------------------------------------------------8
D-9---12-9---10-9---12-9---10-9---10-12---9---12--9---10-9---12-9--10-9----




E------------------------------------------------------------
B------------------------------------------------------------
G------------------------------------------------------------
D---------------------------------------------------------------------3-3-3
A---------------------------------------------------------------------3-3-3
D-9---12-9---10-9---12-9---10-9---10-12---9---12-9---10-9---12-9---10-3-3-3





E------------------------------------------------------------
B------------------------------------------------------------
G-------------------------------------------------------------------------10
D-9---12-9---10-9---12-9---10-9---10-12---9---12-9---10-9---12-9---10-9----9
A-9---12-9---10-9---12-9---10-9---10-12---9---12-9---10-9---12-9---10-9----8
D-9---12-9---10-9---12-9---10-9---10-12---9---12-9---10-9---12-9---10-9-----



E------------------------------------------------------------
B------------------------------------------------------------
G------------------------------------------------------------
D-9----12-9----10-9----12-9----10-9----10-12----9----12-9----10-9
A-9----12-9----10-9----12-9----10-9----10-12----9----12-9----10-9
D-9----12-9----10-9----12-9----10-9----10-12----9----12-9----10-9




this is the very end the outro
E------------------------------------------------------------
B------------------------------------------------------------
G------------------------------------------------------------
D-7-9--7-9--7-9--7-9---3-----------7-9--7-9--7-9--7-9---X-X-X-X
A-7-9--7-9--7-9--7-9---3-repeat----7-9--7-9--7-9--7-9---X-X-X-X
D-7-9--7-9--7-9--7-9---3-----------7-9--7-9--7-9--7-9---X-X-X-x




E------------------------------------------------------------
B------------------------------------------------------------
G------------------------------------------------------------
D-7-9--7-9--7-9--7-9---3-----------7-9--7-9--7-9--7-9--------
A-7-9--7-9--7-9--7-9---3-repeat----7-9--7-9--7-9--7-9--------
D-7-9--7-9--7-9--7-9---3-----------7-9--7-9--7-9--7-9--------


and there you have thats the whole song, enjoy and have fun, for everyone that uses this.

any questions, comments, or death threats plz contact me at moridin13@hotmail.com

this was done by Ant
Comments