Disturbed - Voices Chords & Tabs

 

Voices Chords & Tabs

Disturbed Chords & Tabs

Version: 1 Type: Tab 0 ratings
1 star 2 stars 3 stars 4 stars 5 stars
comments

Voices Tab

#----------------------------------PLEASE NOTE--------------------------------#
#This file is the author's own work and represents their interpretation of the#
#song. You may only use this file for private study, scholarship, or research.#
#-----------------------------------------------------------------------------#
#-- File created with Instab - http://www.pconline.com/~smcarey/instab.html --#
#-----------------------------------------------------------------------------#

Author/Artist: Disturbed
Title: Voices
Album: The Sickness
Transcribed by: st2012
Email: st2012@hotmail.com

Tune your guitar to dropped D and down a half step.

------------------------------------------------------------------------------
------------------------------------------------------------------------------
------------------------------------------------------------------------------
-11------9--11------9---------------------------------------------------------
-9-------9--10------9---------------------------------------------------------
-9-------9--9-------9---------------------------------------------------------
          Intro:                                                              

--------------------|---------------------------------------------------------
--------------------|---------------------------------------------------------
--------------------|---------------------------------------------------------
-7h9-7h9-7h9-7h9-15-|-7h9-7h9-7h9-7h9--xxxx-----------------------------------
-7h9-7h9-7h9-7h9-15-|-7h9-7h9-7h9-7h9--xxxx-----------------------------------
-7h9-7h9-7h9-7h9-15-|-7h9-7h9-7h9-7h9--xxxx-----------------------------------
          Verse:                                                              
[ Tab from: http://www.guitartabs.cc/tabs/d/disturbed/voices_tab.html ]
------------------------------------------------------------------------------
------------------------------------------------------------------------------
------------------------------------------------------------------------------
------------------------------------------------------------------------------
------------------------------------------------------------------------------
-7h9-7h9-7h9-7h9---\3-----7h9-7h9-7h9-7h9---\15-------------------------------
         Chorus:                                                              

------------------------------------------------------------------------------
------------------------------------------------------------------------------
------------------------------------------------------------------------------
-0------7--9----------0---------7--9------------------------------------------
-0------7--9----------0---------7--9------------------------------------------
-0------7--9----------0---------7--9------------------------------------------
        Break 1:                                                              

--------------|---------------------------------------------------------------
--------------|---------------------------------------------------------------
--------------|---------------------------------------------------------------
-9-7-10-4-5-7-|-9-7-10--15-15-15----------------------------------------------
-9-7-10-4-5-7-|-9-7-10--15-15-15----------------------------------------------
-9-7-10-4-5-7-|-9-7-10--15-15-15----------------------------------------------
        Break 2:                                                              

------------------------------------------------------------------------------
------------------------------------------------------------------------------
--------------------------------------------------10--------------------------
--------------------------------------------------9---------------------------
--------------------------------------------------8---------------------------
-9-12-9-10-9-12-9-10-9-9-12-9-12-9-10-9-12-9-10-9-----------------------------
                                                                              

------------------------------------------------------------------------------
------------------------------------------------------------------------------
--------------------------------------------------10--------------------------
-9-12-9-10-9-12-9-10-9-9-12-9-12-9-10-9-12-9-10-9-9---------------------------
-9-12-9-10-9-12-9-10-9-9-12-9-12-9-10-9-12-9-10-9-8---------------------------
-9-12-9-10-9-12-9-10-9-9-12-9-12-9-10-9-12-9-10-9-----------------------------
                                                                              

Comments