Disturbed - Voices Chords & Tabs

 

Voices Chords & Tabs

Disturbed Chords & Tabs

Version: 2 Type: Bass Tab 0 ratings
1 star 2 stars 3 stars 4 stars 5 stars
comments

Voices Bass Tab

Bass Tab. 
Disturbed - "Voices" 
Tabbed by: Scott 
I've got the main riff, chorus, and bridge...the chorus might be wrong so 
please send me updates to BigBoy8207@aol.com   and i will gladly update it.. 
thanks

INTRO*
G)-----------------------------------|
D)--------8----------------8---------|
A)-----------------------------------|
E)--6-6-6---6-6--*---6-6-6----6-6----|
B)  s s s p s s      s s s p  s s 
[ Tab from: http://www.guitartabs.cc/tabs/d/disturbed/voices_btab_ver_2.html ]
Main Riff*
G)------------------------------------------------|
D)------------------------------------------------|
A)-----------------------------------------(7)----|
E)--4h6-4h6-4h6-4h6--(7)-* 4h6-4h6-4h6-4h6--------|
B)------------------------------------------------|

Chorus*.... help me on this one 
G)------------------------------------------
D)--------------------------7-----------------------7-------------|
A)----------5---------7--9---------------5------7h9---------------|
E)-------------5--7-------------------7-5-5--7---------5----------|
B)--(2)------------------------(2)--------------------------(2)---|

Bridge*
G)----------------------------|
D)----------------------------|
A)----------------------------|
E)---6-4-6--------------------|
B)------------6-4-6-----------|

So that's pretty much all, now all you have to do is put them in a order that 
sounds good.. later 
KEY
( ) =  hold note 
s= slap 
p= pop 
h= hammer on 
Comments