Disturbed - Violence Fetish Chords & Tabs

 

Violence Fetish Chords & Tabs

Disturbed Chords & Tabs

Version: 6 Type: Tab 0 ratings
1 star 2 stars 3 stars 4 stars 5 stars
comments

Violence Fetish Tab

   
Artist: Disturbed
Song: Violence Fetish
Album: The Sickness
       Giant Records
Email: rexxdoggy@yahoo.com

I tabbed this song using 2 guitars, but it is very possible to 
combined them into one guitar in the absensce of a 2nd guitar 
or keyboard, or a bass can double as guitar 1 while guitar 2 is 
playing. Guitar 2 is using Flange and Delay effects.

Tuning: Drop D down 1/2 step

H = harmonic: 
x^= bend up from x
M = Palm-mute
/ =upward and downward slides respectively
h = hammer on.
p = pull off.

Intro:
                             Riff A: Guitar 2 (or 1)
Eb|-------------------------|----13----12-----------13----12-----16--|
Bb|-------------------------|-15----15-----15----15----15----15------|
Gb|-------------------------|----------------------------------------|
Db|-0-----------------------|----------------------------------------|
Ab|-0-----------------------|----------------------------------------|
Db|-0-----------------------|----------------------------------------|
   (volume fades and Guitar 2 comes in)


Chorus: Rhy Fig. 1                                  End Fig. 1    }
                             P.H.
Eb|--------------------------10---|----------------------13~--13~-|
Bb|-------------------------------|-------------------------------|
Gb|------8------------------------|------8------------------------|
Db|------7------------------------|------7--------------0----0----|
Ab|------6---------------5/(6)----|------6------------------------|
Db|-0---------0----0--------------|-0---------0----0--------------|
                                          pm    pm

Verse 1
Eb|------------------------------|
Bb|------------------------------|
Gb|------------------------------|
Db|-0-------------------3-/(14)--|
Ab|-0-------------------3-/(14)--|
Db|-0-------------------3-/(14)--|
   (hold for 14 beats)           
[ Tab from: http://www.guitartabs.cc/tabs/d/disturbed/violence_fetish_tab_ver_6.html ]
  { rhy fig 2
Eb|--------------------------------------------|
Bb|--------------------------------------------|
Gb|----8--------------------8------------------|
Db|----7--------------------7------------------|
Ab|----6--------------------6------------------|
Db|-0-----0--0--0-1-0----0-----0--0--0-0-0-0-0-|
    pm    pm.....   pm....     pm............


                               End rhy fig 2 }
Eb|------------------------------------------|
Bb|------------------------------------------|
Gb|----8------------------8------------------|
Db|----7------------------7------------------|
Ab|----6------------------6------------------|
Db|-0-----0--0--0-1-0--0-----0--0--0-1-0-0-0-|
    pm    pm.....   pm..     pm.....   pm...


Pre-chorus: Guitar 1  : Riff B1
Eb|---------------------------------|
Bb|---------------------------------|
Gb|---------------------------------|
Db|---------------------------------|
Ab|---------------------------------|
Db|-3-----2-----2/--8-------7-------|

Eb|----------------------------------------|
Bb|----------------------------------------|
Gb|----------------------------------------|
Db|----------------------------------------|
Ab|----------------------------------------|
Db|-7--3-----2----(2)/-8------7-----------|


Pre-chorus: Guitar 2:  Riff B2
Eb|---------------------------------|
Bb|----5-----5----5-----5-------5---|
Gb|-----------------3-------2-------|
Db|-3-----2-----2-------------------|
Ab|---------------------------------|
Db|---------------------------------|

Eb|----------------------------------------|
Bb|---5----5-----5----5----5-------5-----5-|
Gb|-2-------------------3------2-------2---|
Db|-----3-----2-----2----------------------|
Ab|----------------------------------------|
Db|----------------------------------------|

Bridge:Rhy Fig 3               Rhy Fig 3A.
Eb|---------------------------|---------------------------|
Bb|---------------------------|---------------------------|
Gb|---------------------------|-------7-------------------|
Db|---------------------------|-------7-------------------|
Ab|-------5-----6-----7-----8-|-------5-----1-----2-----3-|
Db|-0--0-----0-----0-----0----|-0--0-----0--1--0--2--0--3-|
    pm..    pm     pm    pm              pm    pm    pm

Outro: last chorus
Eb|----------------------------------|
Bb|----------------------------------|
Gb|----------------------------------|
Db|-0----1----0----0-----------------|
Ab|-0----1----0----0----0----0-0-0-0-|
Db|-0----1----0----0----0----0-0-0-0-|
                        pm..........
Comments