Disturbed - Violence Fetish Chords & Tabs

 

Violence Fetish Chords & Tabs

Disturbed Chords & Tabs

Version: 4 Type: Tab 0 ratings
1 star 2 stars 3 stars 4 stars 5 stars
comments

Violence Fetish Tab

   
-----------------------------------------------------------------------------
			     Violence Fetish - Disturbed
Tabbed by: blinker182
Email:sbdude101@hotmail.com
Tuning: standard E A D G B E
im sure that its all right, try it out 

pm= plam mute 
b= bend the note before the "b" up the whole way, then bring back down

e|---------------------------------------------------------------------------
B|---------------------------------------------------------------------------
G|---------------------------------------------------------------------------
D|---------------------------------------------------------------------------
A|---------------------------------------------------------------------------
E|-0--         hold note while u play next verse-----------------------------

e|----9--12--9-11-9-9-12-9-11/9\15-------------------------------------------
B|---------------------------------------------------------------------------
G|--------------------------------------------X4-----------------------------
D|---------------------------------------------------------------------------
A|---------------------------------------------------------------------------
E|---------------------------------------------------------------------------

e|------------------------------------------------------------------|
B|------------------------17B-17-17B---------<5>---------17B-17-17B-|
G|----------<5>------------------------------<5>--------------------|X1
D|0-1-0-0-1-<5>---0-1-0-0----------0-1-0-0-1-----0-1-0-0------------|
A|0-1-0-0-1-------0-1-0-0----------0-1-0-0-1-----0-1-0-0------------|
E|0-1-0-0-1-------0-1-0-0----------0-1-0-0-1-----0-1-0-0------------|


e|--------------------------------------|
B|--------------------------------------|
G|--------------------------------------|
D|-0----0-13-00-0-01-0--0-13-00-0-01000-|
A|-0----0-13-00-0-01-0--0-13-00-0-01000-|x2
E|-0----0-13-00-0-01-0--0-13-00-0-01000-|
PM      .    .. . .  .  .    .. . .....
 
e|------0-------0------0-------0-------0-------0-----------------------------
B|---------------------------------------------------------------------------
G|---------------------------------------------------------------------------
D|-------------------------------------------------------X2------------------
A|---------------------------------------------------------------------------
E|--3------2------2-------8-------7-------7----------------------------------
[ Tab from: http://www.guitartabs.cc/tabs/d/disturbed/violence_fetish_tab_ver_4.html ]
e|------------------------------------------------------------------|
B|------------------------17B-17-17B---------<5>---------17B-17-17B-|
G|----------<5>------------------------------<5>--------------------|X2
D|0-1-0-0-1-<5>---0-1-0-0----------0-1-0-0-1-----0-1-0-0------------|
A|0-1-0-0-1-------0-1-0-0----------0-1-0-0-1-----0-1-0-0------------|
E|0-1-0-0-1-------0-1-0-0----------0-1-0-0-1-----0-1-0-0------------|

e|--------------------------------------|
B|--------------------------------------|
G|--------------------------------------|
D|-0----0-13-00-0-01-0--0-13-00-0-01000-|
A|-0----0-13-00-0-01-0--0-13-00-0-01000-|x2
E|-0----0-13-00-0-01-0--0-13-00-0-01000-|
PM      .    .. . .  .  .    .. . .....

e|------0-------0------0-------0-------0-------0-----------------------------
B|---------------------------------------------------------------------------
G|---------------------------------------------------------------------------
D|-------------------------------------------------------X2------------------
A|---------------------------------------------------------------------------
E|--3------2------2-------8-------7-------7----------------------------------

e|------------------------------------------------------------------|
B|------------------------17B-17-17B---------<5>---------17B-17-17B-|
G|----------<5>------------------------------<5>--------------------|X2
D|0-1-0-0-1-<5>---0-1-0-0----------0-1-0-0-1-----0-1-0-0------------|
A|0-1-0-0-1-------0-1-0-0----------0-1-0-0-1-----0-1-0-0------------|
E|0-1-0-0-1-------0-1-0-0----------0-1-0-0-1-----0-1-0-0------------|

|-----------------|
|-----------------|
|------7-8-9-10---|
|------7-8-9-10---|x4
|-0-0--5-6-7--8---|
|-0-0-------------|
PM. .   

|------------------------|
|------------------------|
|------------------------|
|-0-0--1-2-0-1-3-1-4-1-5-|x4
|-0-0--1-2-0-1-3-1-4-1-5-|
|-0-0--1-2-0-1-3-1-4-1-5-|

e|------0-------0------0-------0-------0-------0-----------------------------
B|---------------------------------------------------------------------------
G|---------------------------------------------------------------------------
D|-------------------------------------------------------X2------------------
A|---------------------------------------------------------------------------
E|--3------2------2-------8-------7-------7----------------------------------

e|---------------------------------------------------------------|
B|---------------------------------------------------------------|
G|---------------------------------------------------------------|X3
D|0-1-0-0-1-0----0-1-0-0----0-1-0-0-1-----0-0-0-0----------------|
A|0-1-0-0-1-0----0-1-0-0----0-1-0-0-1-----0-0-0-0----------------|
E|0-1-0-0-1-0----0-1-0-0----0-1-0-0-1-----0-0-0-0----------------|

pm                                        . . . .


please rate
blinker
Comments