Disturbed - Violence Fetish Chords & Tabs

 

Violence Fetish Chords & Tabs

Disturbed Chords & Tabs

Version: 3 Type: Tab 0 ratings
1 star 2 stars 3 stars 4 stars 5 stars
comments

Violence Fetish Tab

   
Song: Violence Fetish
Artist: Disturbed
Album: The Sickness
Tuning:C#G#C#F#A#D# (Drop D, Half Note Down)
[ Tab from: http://www.guitartabs.cc/tabs/d/disturbed/violence_fetish_tab_ver_3.html ]
Riff A
--------9-12-9-11-9-9-12-9-11-9-15-----------
---------------------------------------------
---------------------------------------------
-0-------------------------------------------
-0-------------------------------------------
-0-------------------------------------------
 Ring
Riff B
---------------------------------------------
---------------------------------------------
---------------------------------------------
-0-3-0-2-0--0-3-0-0-0-7-(3)------------------
-0-3-0-2-0--0-3-0-0-0-7-(3)------------------
-0-3-0-2-0--0-3-0-0-0-7-(3)------------------
                         ^ 
                       2nd Time 
Riff C
---------------------------------------------\
--------------------------------------------- \
---------------------------------------------  \X?
---------------------------------------------  /
-0-0-0--------------------------------------- /
-0-0-0---------------------------------------/
|-----|
  P.M.
Riff D
-9-11-9-12-9-9-11-9-12-9---------------------
---------------------------------------------
---------------------------------------------
---------------------------------------------
---------------------------------------------
---------------------------------------------
Riff E
---------------------------------------------
---------------------------------------------
--------------------------------------------- 
--------------------------------------------- X?
-0-0--3-4-5-6--------------------------------
-0-0--3-4-5-6--------------------------------
Riff F
---------------------------------------------
---------------------------------------------
---------------------------------------------
---------------------------------------------
-0-2-0-0-0-x-x-x-----------------------------
-0-2-0-0-0-x-x-x-----------------------------


O.K. that's it, any questions, e-mail me at flipout121@go.com
Comments