Disturbed - Violence Fetish Chords & Tabs

 

Violence Fetish Chords & Tabs

Disturbed Chords & Tabs

Version: 1 Type: Bass Tab 0 ratings
1 star 2 stars 3 stars 4 stars 5 stars
comments

Violence Fetish Bass Tab

   
Band- Disturbed
Song- Violence Fetish

Gtr I (Bb Db Ab Db Gb) - 'Fuzz'

 Intro
  Moderately Q=90
 4/4
  Gtr I
  H    +Q.   S  S    H     +Q.   S  S    H     +Q.   S  S    H     +Q.   S  S
|-----------------|-------------------|-------------------|--------------------|
|-----------------|-------------------|-------------------|--------------------|
|-----------------|-------------------|-------------------|--------------------|
|-0----(0)---9-11-|-12----(12)---9-11-|-12----(12)---9-11-|-12----(12)---9-11--|
|-----------------|-------------------|-------------------|--------------------|


   H     +Q.   S  S    H     +Q.   S S     S S S S S S S S S S S S S S S S  4x
|-------------------|------------------||-----------------------------------||
|-------------------|------------------||o---------------------------------o||
|-------------------|------------------||-----------------------------------||
|-12----(12)---9-11-|-12----(12)-------||o---------------------------------o||
|-------------------|--------------0-2-||--3-3---3-3---3-3---3---3-3---0-2--||


  E. S +E  E +S  E.  E E   E. S +E  E +S  E. S S E
|------------------------|-------------------------|
|----------------------7-|-------------------------|
|-------------------/8---|-------------------------|
|-0--1-(1)-0-(0)-0-------|-0--1-(1)-0-(0)-0--1p0-1-|
|------------------------|-------------------------|


  E. S +E  E +S  E.  E E   E. S +E  E +S  E. S S E
|------------------------|---------------------------||
|----------------------7-|---------------------------||
|-------------------/8---|---------------------------||
|-0--1-(1)-0-(0)-0-------|-0--1-(1)-0-(0)-0--1-1-----||
|------------------------|---------------------------||


   Verse
    $
    S E S S S E S S S S S S S S  8x
||-------------------------------||
||o-----------------------------o||
||-------------------------------||
||o-0-0-0---0-0---0---0-0---0---o||
||-------------------------------||


 Pre-chorus
  $$
  S E. +E  E S E S E S S   S E. +E  E +S  S S S S S S S
|------------------------|------------------------------|
|------------------------|------------------------------|
|------------------------|--------------------7---------|
|-3-3--(3)-2-2h3-3s5-5s7-|-8-8--(8)-7-(7)-7-8---8-7-----|
|------------------------|--------------------------8-7-|


             To Dbl. Coda
  E. S +E  E +E  E S S S S   S S E E E +E  S S E E
|--------------------------|-----------------------||
|--------------------------|-----------------------||
|--------------------------|-----------------------||
|----------------------7h8-|-6S7-8-8-7-(7)-7-8-7-7-||
|-6--6-(6)-5-(5)-5-5h6-----|-----------------------||


   Chorus
    E. S +E  E +S  E.  E E   E. S +E  E +S  E. S S E
||-------------------------|-------------------------|
||o----------------------7-|-------------------------|
||--------------------/8---|-------------------------|
||o-0--1-(1)-0-(0)-0-------|-0--1-(1)-0-(0)-0--1p0-1-|
||-------------------------|-------------------------|

[ Tab from: http://www.guitartabs.cc/tabs/d/disturbed/violence_fetish_btab.html ]
                                          To Coda
  E. S +E  E +S  E.  E E   E. S +E  E +S  E. S S E
|------------------------|---------------------------||
|----------------------7-|--------------------------o||
|-------------------/8---|---------------------------||
|-0--1-(1)-0-(0)-0-------|-0--1-(1)-0-(0)-0--1-1----o||
|------------------------|---------------------------||


                                              D.S. al Coda
  S E S S S E S S S S S S S S   S E S S S E S S S S S S S S
|-----------------------------|-----------------------------||
|-----------------------------|-----------------------------||
|-----------------------------|-----------------------------||
|-0-0-0---0-0---0---0-0---0---|-0-0-0---0-0---0---0-0---0---||
|-----------------------------|-----------------------------||


   Bridge
    &                                    D.S.S. al Dbl. Coda
   3/4
    E E Q  Q   4x     E E E S S S S S S  7x E E E S S S S S S
||-------------||-||---------------------||-------------------||
||o-----------o||-||o-------------------o||-------------------||
||-------------||-||------5--------------||-----5-------------||
||o-0-0-------o||-||o-0-0---0-1-0-2-0-3-o||-0-0---0-1-0-2-0-2-||
||-------------||-||---------------------||-------------------||


                          3rd Chorus
  &&
 4/4
  S S E E E +E  S S Q      E. S +E  E +S  E. E E   E. S +E  E +S  E. S S S S  3x
|----------------------||------------------------|----------------------------||
|----------------------||o-----------------------|---------------------------o||
|----------------------||------------------------|----------------------------||
|-6S7-8-8-7-(7)-7-8----||o-0--1-(1)-0-(0)-0--1-0-|-0--1-(1)-0-(0)-0--1-0-0-0-o||
|----------------------||------------------------|----------------------------||


  E. S +E  E +S  E. E E   E. S +E  E +S  E S S S E
|-----------------------|--------------------------*|
|-----------------------|--------------------------*|
|-----------------------|--------------------------*|
|-0--1-(1)-0-(0)-0--1-0-|-0--1-(1)-0-(0)-0-0-0---0-*|
|-----------------------|--------------------------*|


Duration Legend
---------------
W - whole; H - half; Q - quarter; E - 8th; S - 16th; T - 32nd; X - 64th; a - acciaccatura
+ - note tied to previous; . - note dotted; .. - note double dotted
Uncapitalized letters represent notes that are staccato (1/2 duration)
Irregular groupings are notated above the duration line
Duration letters will always appear directly above the note/fret number it represents the
duration for.  Duration letters with no fret number below them represent rests.  Multi-
bar rests are notated in the form Wxn, where n is the number of bars to rest for.  Low
melody durations appear below the staff

Tablature Legend
----------------
 h   - hammer-on
 p   - pull-off
 b   - bend
 pb  - pre-bend
 r   - bend release (if no number after the r, then release immediately)
 /\  - slide into or out of (from/to "nowhere")
 s   - legato slide
 S   - shift slide
  - natural harmonic
[n]  - artificial harmonic
n(n) - tapped harmonic
 ~   - vibrato
 tr  - trill
 T   - tap
 TP  - trem. picking
 PM  - palm muting
\n/  - tremolo bar dip; n = amount to dip
 \n  - tremolo bar down
 n/  - tremolo bar up
/n\  - tremolo bar inverted dip
 =   - hold bend; also acts as connecting device for hammers/pulls
 <>  - volume swell (louder/softer)
 x   - on rhythm slash represents muted slash
 o   - on rhythm slash represents single note slash

Misc Legend
-----------
 |  - bar
||  - double bar
||o - repeat start
o|| - repeat end
*|  - double bar (ending)
 :  - bar (freetime)
 $  - Segno
 &  - Coda
Tempo markers -  = BPM(8/16=s8/s16), where s8 = swing 8ths, s16 = swing 16ths
Comments