Disturbed - The Game Chords & Tabs

 

The Game Chords & Tabs

Disturbed Chords & Tabs

Version: 2 Type: Tab 0 ratings
1 star 2 stars 3 stars 4 stars 5 stars
comments

The Game Tab

Band- Disturbed
Song- The Game
Album- The Sickness
Tuning- Down 1/2 Step

Intro
|-12-w/Delay-------13---12-----------15---|
|------------------------------15---------|
|-----------------------------------------|
|-----------------------------------------|
|-----------------------------------------|
|-----------------------------------------|

Pre- Chorus
|-----------------------------------------------------|
|-----------------------------------------------------|
|-4---------4---------5-----7/9-----------------------|
|-2---------2---------3-----------------5/7-----------|
|-2---------2---------3-----5/7---------------------3-|
|-0-0-0-0-0---0-0-0-0---0-0-----0-0-0-0-3/5-0-0-0-0-1-|
P.M........   .......   ...     .......     .......

|-------------------------------------------------|
|-------------------------------------------------|
|-4--------4---------5-----7/9--------------------|
|-2--------2---------3-----------------5/7--------|
|-2--------2---------3-----5/7-----------------8--|
|-0-0-0-0-0--0-0-0-0---0-0-----0-0-0-0-3/5-0-0-6--|
P.M........  .......   ...     .......     ...

Chorus
|----------------------------------------------|
|----------------------------------------------|
|----------------------------------------------|
|----------------------------------------------|
|----------------------------------------------|
|-0-0-0---0--0---0-0-0---0-0-0---0--0---0-0-0--|
[ Tab from: http://www.guitartabs.cc/tabs/d/disturbed/the_game_tab_ver_2.html ]
|--------------------------0~--|
|--------------------------0~--|
|-4---------4--------------2~--|
|-2---------2---------3----3~--|
|-2---------2---------3----3~--|
|-0-0-0-0-0---0-0-0-0-1----1~--|
P.M........   .......

Bridge
|-----------12^--------12^-0-------12^--------12^-0---|
|-----------15^--------15^-0-6^----15^--------15^-0-8-|
|----------------------------8^---------------------8-|
|-----------------------------------------------------|
|-----------------------------------------------------|
|-0~-----0------1-1-0-----------0------1-1-0----------|

|--------------------------------------|
|--------------------------------------|
|--------------------------------------|
|--------------------------------------|
|---------------------2-2-2------------|
|-0-0-0---0---0--17\--0-0-0--0---0--0--|
P.M.                  ...............

|------------------------------------------------------------------|
|------------------------------------------------------------------|
|------------------------------------------------------------------|
|------------------------------------------------------------------|
|-----------------2-2-2----------------------------2-2-2---2--2--2-|
|-0-0-0--0--0--0--0-0-0---0-0-0---0-0-0---0--0--0--0-0-0---0--0--0-|
P.M..............................................

|-------------------------------------------------------|
|-------------------------------------------------------|
|-------------------------------------------------------|
|-------------------------------------------------------|
|-2-2-2---2--2--2--2-2-2---2--2--2--2-2-2---2--2--2-2-2-|
|-0-0-0---0--0--0--0-0-0---0--0--0--0-0-0---0--0--0-0-0-|

ENJOY!!!!!!
Comments