Disturbed - The Game Chords & Tabs

 

The Game Chords & Tabs

Disturbed Chords & Tabs

Version: 2 Type: Bass Tab 0 ratings
1 star 2 stars 3 stars 4 stars 5 stars
comments

The Game Bass Tab

Band- Disturbed
Album- The Sickness
Song- The Game
Tuning- Down 1/2 Step

Intro
|------------------------------------------|
|------------------------------------------|
|---------8-----5h7------------------------|
|-0--0--0---0-0-----0-0-0-0-3h5-0-0-0-0-1--|

Chorus
|-----------------------------------------------------------------------|
|-----------------------------------------------------------------------|
|--------8-----5h7------------------------------------------------------|
|-0-0--0---0-0-----0-0-0-0-3h5-0-0-6---0-0-0---0--0---0-0-0--0--0--0-1--|
[ Tab from: http://www.guitartabs.cc/tabs/d/disturbed/the_game_btab_ver_2.html ]
Verses 3&4
|-----9---------9---9----|
|------------------------|
|-7-7---7-7-7-7---7------|
|------------------------|

Bridge
|-----9---------9---------------------------------------|
|-------------------------------------------------------|
|-7-7---7-7---7---7-------------------------------------|
|-----------0----------0---1--1--0----0-1-2-3-2-1-2-2-3-|

|---------------------------------------------------------|
|-----------------5h7-----5h7-----------------------------|
|-------------5h7-----5h7----------------5h7-----3h5------|
|-0---1-1-0-------------------0---1-1-0------5h7-----3h5--|

Another great song by Disturbed. ENJOY!!!!!
Comments