Disturbed - Ten Thousand Fists Chords & Tabs

 

Ten Thousand Fists Chords & Tabs

Disturbed Chords & Tabs

Version: 6 Type: Tab

Ten Thousand Fists Tab

Band- Disturbed
Song- Ten Thousand Fists
Album- Ten Thousand Fists
Tuning- Drop C#



Intro
Guitar 1
|---------------------------------------------------------|
|---------------------------------------------------------|
|---------------------------------------------------------|
|---------------------------------------------------------|
|-9-8-6-8--9-8-6-8-6-8-9-8-6-8--9-8-6-8--9-8-6-8--9-8-6-8-|
|---------------------------------------------------------|
Guitar 2
|---------------------------------------------------------|
|---------------------------------------------------------|
|---------------------------------------------------------|
|---------------------------------------------------------|
|-13-12-10-12--13-12-10-12-10-12-13-12-10-10...etc
|---------------------------------------------------------|

Heavy Intro
|---------------------------------------------------------|
|---------------------------------------------------------|
|---------------------------------------------------------|
|---------------------------------------------------------|
|-4-3-1-3--4-3-1-3-1-3-4-3-1-3--4-3-1-3--4-3-1-3--4-3-1-3-|
|-4-3-1-3--4-3-1-3-1-3-4-3-1-3--4-3-1-3--4-3-1-3--4-3-1-3-|

|----------------------------------------------------------------]
|----------------------------------------------------------------]
|----------------------------------------------------------------]
|----------------------------------------------------------------]
|-4-3-1-3--4-3-1-3-1-3-4-3-1-3--4-3-1-3--4-3-1-3--4-3-1-3--------]
|-4-3-1-3--4-3-1-3-1-3-4-3-1-3--4-3-1-3--4-3-1-3--4-3-1-3---/15~}]

|---------------------------------------------------------|
|---------------------------------------------------------|
|---------------------------------------------------------|
|---------------------------------------------------------|
|-4-3-1-3--4-3-1-3-1-3-4-3-1-3--4-3-1-3--4-3-1-3--4-3-1-3-|
|-4-3-1-3--4-3-1-3-1-3-4-3-1-3--4-3-1-3--4-3-1-3--4-3-1-3-|

|----------------------------------------------------------------]
|----------------------------------------------------------------]
|----------------------------------------------------------------]
|----------------------------------------------------------------]
|-4-3-1-3--4-3-1-3-1-3-4-3-1-3--4-3-1-3--4-3-1-3--4-3-1-3--------]
|-4-3-1-3--4-3-1-3-1-3-4-3-1-3--4-3-1-3--4-3-1-3--4-3-1-3---6666/]


[ Tab from: http://www.guitartabs.cc/tabs/d/disturbed/ten_thousand_fists_tab_ver_6.html ]
Verse
|----------------------------------------|
|----------------------------------------|
|----------------------------------------|
|----------------------------------------|
|--------------------------------------44|
|-4-3-1-3-3-3-3--33--3/6-66-66-6/4-44--44|
P.M.                                   ..

|---------------------------------------------------------|
|---------------------------------------------------------|
|---------------------------------------------------------|
|---------------------------------------------------------|
|-4-3-1-3--4-3-1-3-1-3-4-3-1-3--4-3-1-3--4-3-1-3--4-3-1-3-|
|-4-3-1-3--4-3-1-3-1-3-4-3-1-3--4-3-1-3--4-3-1-3--4-3-1-3-|



Chorus
|------------------------------|
|------------------------------|
|------------------------------|
|-------3-5-3-5-7-5-6-8-6-8-6-8|
|-x-x-x-3-3-3-5-5-5-6-6-6-8-6-6|
|-x-x-x-3-3-3-5-5-5-6-6-6-8-6-6|

|------------------------------|
|------------------------------|
|----------------------------6*|
|-3-5-3-5-7-5-6-8-6-8-6---6*---|
|-3-3-3-5-5-5-6-6-6-8-6-6*-----|
|-3-3-3-5-5-5-6-6-6-8-6--------|

|------------------------|
|------------------------|
|------------------------|
|-3-5-3-5-7-5-6-8-6-8-6-8|
|-3-3-3-5-5-5-6-6-6-8-6-6|
|-3-3-3-5-5-5-6-6-6-8-6-6|

|----------------------------|
|----------------------------|
|----------------------------|
|-3-8--------8---------------|
|-3-6-5-6-55-6---3-6-6-6-6-6-|
|-3---5-5-55-----3-5-5-6-6-6-|
P.M.      ..



Play Heavy Intro

Play Verse

Fill(Played before Pre-Chorus)
|-------|
|-------|
|-------|
|-------|
|-1-1-4-|
|-1-1-4-|


Play this after chorus
|-------|
|-------|
|-------|
|--0~---|
|--0~---|
|--0~---|



Bridge w/delay
|--------------------------------------|
|--------------------------------------|
|--------------------------------------|
|-8-7-8---8-7-8-10-------7^-10-8-5-8-7-|
|-------5----------5^-5^---------------|
|--------------------------------------|



Play Pre-Chorus

Play Chorus

Play Intro

Ending
|--------------------------------------------------|
|--------------------------------------------------|
|--------------------------------------------------|
|--------------------------------------------------| X3
|-4-3-1-3--4-3-1-3-1-3-4-3-1-3--4-3-1-3--4-3-6-8-6-|
|-4-3-1-3--4-3-1-3-1-3-4-3-1-3--4-3-1-3--4-3-6-8-6-|


last time
|----------------------------------------------------|
|----------------------------------------------------|
|----------------------------------------------------|
|--------------------------------------------------3-|
|-4-3-1-3--4-3-1-3-1-3-4-3-1-3--4-3-1-3--4-3-6-8-6-3-|
|-4-3-1-3--4-3-1-3-1-3-4-3-1-3--4-3-1-3--4-3-6-8-6-3-|

this is my first tab, please rate.