Disturbed - Ten Thousand Fists Chords & Tabs

 

Ten Thousand Fists Chords & Tabs

Disturbed Chords & Tabs

Version: 4 Type: Tab 0 ratings
1 star 2 stars 3 stars 4 stars 5 stars
comments

Ten Thousand Fists Tab

Band- Disturbed
Song- Ten Thousand Fists
Album- Ten Thousand Fists
Tuning- Drop Db or Drop C#(Same Thing)

The other two versions are in Drop C.They are both correct for that tuning,but the way
Dan plays it is in Drop Db.ENJOY!

Intro
|---------------------------------------------------------|
|---------------------------------------------------------|
|---------------------------------------------------------|
|-3-2-0-2--3-2-0-2-0-2-3-2-0-2--3-2-0-2--3-2-0-2--3-2-0-2-|
|---------------------------------------------------------|
|---------------------------------------------------------|
P.M......  ...................  .......  .......  .......

Heavy Intro
|---------------------------------------------------------|
|---------------------------------------------------------|
|---------------------------------------------------------|
|---------------------------------------------------------|
|-3-2-0-2--3-2-0-2-0-2-3-2-0-2--3-2-0-2--3-2-0-2--3-2-0-2-|
|-3-2-0-2--3-2-0-2-0-2-3-2-0-2--3-2-0-2--3-2-0-2--3-2-0-2-|

Fill(He does this during the heavy intro,listen to the song for when he does)
|-----|
|-----|
|-----|
|-----|
|-----|
|-/14-|

Verse
|---------------------------|
|---------------------------|
|---------------------------|
|---------------------------|
|-2-2-2-2-2-2-2-5---3---3-5-|
|-2-2-2-2-2-2-2-5---3---3-5-|
P.M.          .

Play intro part for the other part of the verse
[ Tab from: http://www.guitartabs.cc/tabs/d/disturbed/ten_thousand_fists_tab_ver_4.html ]
Pre-Chorus
|----------------------------------------------------------|
|----------------------------------------------------------|
|---------4-----6-----7-----------4-----6-----7---------7*-|
|-------2-2-4-4-4-5-5-5-7-7-5-4-2-2-4-4-4-5-5-5-7----7*----|
|-x-x-x-2-2-4-4-4-5-5-5-7-7-5-4-2-2-4-4-4-5-5-5-7-7*-------|
|-x-x-x-2---4-4---5-5---7-7-5-4-2---4-4---5-5---7----------|

|---------------------------------------|
|---------------------------------------|
|---4-----6-----7---------------2-2-2-2-|
|-2-2-4-4-4-5-5-5-7-7-5-4-2-2-x-0-0-0-0-|
|-2-2-4-4-4-5-5-5-7-7-5-4-2-2-x-0-0-0-0-|
|-2---4-4---5-5---7-7-5-4-2-2-x-0-0-0-0-|

Chorus
|---------------------------|
|---------------------------|
|---------------------------|
|-------------------5--7--3-|
|-10-10-10-10-10-10-5--7--3-|
|-10-10-10-10-10-10-5--7--3-|

Play Heavy Intro

Play Verse

Fill(Played before Pre-Chorus)
|-------|
|-------|
|-------|
|-------|
|-00--0-|
|-00--0-|
P.M.  .

Play Pre-Chorus

Play Chorus

Second Chorus Ending
|----|
|----|
|----|
|-0~-|
|-0~-|
|-0~-|

Bridge w/delay
|--------------------------------|
|--------------------------------|
|--------------------------------|
|--------------------------5-----|
|-0-0-0------0-0-0---0-2-3---3-2-|
|-0-0-0------0-0-0---------------|
P.M....      .....

Bridge 2
|------------------------------|
|------------------------------|
|------------------------------|
|-2-2---2-2-2-2-2---2-2-0--5-7-|
|-2-2---2-2-2-2-2---2-2-0--5-7-|
|-2-2---2-2-2-2-2---2-2-0--5-7-|

Play Pre-Chorus

Play Chorus

Play Intro

Ending
|------------|
|------------|
|------------|
|-5--7--3--0-|
|-5--7--3--0-|
|-5--7--3--0-|

It should about 95% correct.



Comments