Disturbed - Ten Thousand Fists Chords & Tabs

 

Ten Thousand Fists Chords & Tabs

Disturbed Chords & Tabs

Version: 1 Type: Tab 0 ratings
1 star 2 stars 3 stars 4 stars 5 stars
comments

Ten Thousand Fists Tab

Artist: Disturbed
Song: Ten Thousand Fists
Album: Ten Thousand Fists

Tuning: Drop C (CGCFAD)

This song is an other insane song of Disturbed new CD Ten Thousands fists.

Intro
Guitar 1              
|----------------------|-----------------|
|----------------------|-----------------|
|----------------------|-----------------|
|----------------------|-----------------|
|--9868-9868-98689868--|--9868-98689868--|
|----------------------|-----------------|
                              Repeat

Guitar 2 (with sitar effect)
|-------9----9--9-8-----------|
|---------11--------11-10--8--|
|-11-10-----------------------|
|-----------------------------|
|-----------------------------|
|-----------------------------|

Pre-Verse
"SURVIVAL!"
|----------------------|-----------------|
|----------------------|-----------------|
|----------------------|-----------------|
|--4303-4303-43034303--|--4303-43034303--|
|--4303-4303-43034303--|--4303-43034303--|
|--4303-4303-43034303--|--4303-43034303--|
                             Repeat
Verse
"ONE MORE GODDAMN DAY.."
|----------------------------------------------------------|
|----------------------------------------------------------|
|----------------------------------------------------------|
|----------------------------------------------------------|
|--3-3-3-3-3-3/5-555-58444-4-4303-4303-43034303-4303-4303--|
|--3-3-3-3-3-3/5-555-58444-4-4303-4303-43034303-4303-4303--|
[ Tab from: http://www.guitartabs.cc/tabs/d/disturbed/ten_thousand_fists_tab.html ]
Chorus
"EVil Can No LONGER COVER THEIR EYES.."
|-----------------------|------|
|-----------------------|------|
|--5-5-5/7-7-7/8-8-8/10-|-8-7--|
|--3-3-3/5-5-5/6-6-6/8--|-6-5--|
|--3-3-3/5-5-5/6-6-6/8--|-6-5--|
|--3-3-3/5-5-5/6-6-6/8--|-6-5--|                
                                
|-----------------------|-------|
|-----------------------|---7^--|
|--5-5-5/7-7-7/8-8-8/10-|--7^---|
|--3-3-3/5-5-5/6-6-6/8--|-7^----|
|--3-3-3/5-5-5/6-6-6/8--|-------|
|--3-3-3/5-5-5/6-6-6/8--|-------|
           
|-----------------------|------|
|-----------------------|------|
|--5-5-5/7-7-7/8-8-8/10-|-8-7--|
|--3-3-3/5-5-5/6-6-6/8--|-6-5--|
|--3-3-3/5-5-5/6-6-6/8--|-6-5--|
|--3-3-3/5-5-5/6-6-6/8--|-6-5--|

|---------------|
|---------------|
|--5-5-5/3-3-3--|
|--3-3-3/1-1-1--|
|--3-3-3/1-1-1--|
|--3-3-3/1-1-1--|

"TEN THOUDAND FISTS IN THE AIR!"
|----------------|
|----------------|
|----------------|
|----------------|
|-10-8-6-5-1-5-3-|
|-10-8-6-5-1-5-3-|

Pre-Verse

Verse

Chorus

Interlude
Guitar 1 (with Delay effect) 
|------------|------------------------|
|------------|------------------------|
|------------|------------------------|
|--8-7-8-10--|---------------------0--|
|------------|--00---00-00---00-00-0--|
|------------|--00---00-00---00-00-0--|
PM              ..   .. ..   .. ..     
    Repeat             Repeat

Guitar 2 (with sitar effect)
|-------9----9--9-8-----------|
|---------11--------11-10--8--|
|-11-10-----------------------|
|-----------------------------|
|-----------------------------|
|-----------------------------|

Chorus

Pre-Verse

Outro
|-------------------------|----------------------------|
|-------------------------|----------------------------|
|-------------------------|----------------------------|
|--4303-4303-43034303-6-8-|-4303-4303-43034303-6-8-6-3-|
|--4303-4303-43034303-6-8-|-4303-4303-43034303-6-8-6-3-|
|--4303-4303-43034303-6-8-|-4303-4303-43034303-6-8-6-3-|


Disturbed is : David Draiman (Vocals)
               Dan Donegan (Guitar)
               John Moyer (Bass)
               Mike Wengren (Drums)
Comments