Disturbed - Stricken Chords & Tabs

 

Stricken Chords & Tabs

Disturbed Chords & Tabs

Version: 4 Type: Tab 0 ratings
1 star 2 stars 3 stars 4 stars 5 stars
comments

Stricken Tab

   
this song is in drop Db!!! This is how Dan always does it
and how he did in this song.

Intro
Eb-------------------------------------------------------------------|
Bb-------------------------------------------------------------------|
Gb-------------------------------------------------------------------|
Db-0-3-0--8-7--0-3x-3-5x-5-7--0-3-0--8-7--0-3x-3-5x-3-3--0-3-0--8-7--|
Ab-0-3-0--8-7--0-3x-3-5x-5-7--0-3-0--8-7--0-3x-3-5x-3-3--0-3-0--8-7--|
Db-0-3-0--8-7--0-3x-3-5x-5-7--0-3-0--8-7--0-3x-3-5x-3-3--0-3-0--8-7--|


Eb-------------------------------------------------------------------|
Bb-------------------------------------------------------------------|
Gb------------------------5-5-5-5-----------9-9-9--------------------|
Db0-3x-3-5x-5-7---3-3-3-3-3-3-3-3---7-7-7-7-7-7-7--------------------|
Ab0-3x-3-5x-5-7---3-3-3-3-3-3-3-3---7-7-7-7-7-7-7--------------------|
Db0-3x-3-5x-5-7---3-3-3-3-3-3-3-3---7-7-7-7-7-7-7--------------------|
                                                                       x2
                                                                (whole thing)
Verse
Eb-------------------------------------------------------------------|
Bb-------------------------------------------------------------------|
Gb-------------------------------------------------------------------|
Db-0--0-0--0-0--0-0--0-0--1-3-1-0--0-0--0-0--0-3-1-0-3-1-0-1-0--0-0--|
Ab-0--0-0--0-0--0-0--0-0--1-3-1-0--0-0--0-0--0-3-1-0-3-1-0-1-0--0-0--|
Db-0--0-0--0-0--0-0--0-0--1-3-1-0--0-0--0-0--0-3-1-0-3-1-0-1-0--0-0--|
pm x  x x  x x  x x  x x  x x x x  x x  x x  x x x x x x x x x  x x

Eb-------------------------------------------------------------------|
Bb-------------------------------------------------------------------|
Gb------------------------------5-5-5-5-----------9-9-9--------------|
Db-0-0--0-0--0-0--1-3-1-3-3-3-3-3-3-3-3---7-7-7-7-7-7-7--------------|
Ab-0-0--0-0--0-0--1-3-1-3-3-3-3-3-3-3-3---7-7-7-7-7-7-7--------------|
Db-0-0--0-0--0-0--1-3-1-3-3-3-3-3-3-3-3---7-7-7-7-7-7-7--------------|
pm x x  x x  x x  x x x
                                                                        x2
Chorus                                                          (whole thing)
Eb--------------------------------------------------------------------|
Bb--------------------------------------------------------------------|
Gb--------------------------------------------------------------------|
Db-0---3--8-8-8-8---0---3---8-8-8-10-10-10------0--3--8-8-8-8--3-3----|
Ab-0---3--8-8-8-8---0---3---8-8-8-10-10-10------0--3--8-8-8-8--3-3----|
Db-0---3--8-8-8-8---0---3---8-8-8-10-10-10------0--3--8-8-8-8--3-3----|

Eb----------------------------------------------------------------------|
Bb----------------------------------------------------------------------|
Gb----------------------------------------------------------------------|
Db-7-7--7---7-7--7----0---3--8-8-8-8---0---3---8-8-8-10-10-10------0--3-|
Ab-7-7--7---7-7--7----0---3--8-8-8-8---0---3---8-8-8-10-10-10------0--3-|
Db-7-7--7---7-7--7----0---3--8-8-8-8---0---3---8-8-8-10-10-10------0--3-|
pm x x      x x
                                       1st bridge
Eb-----------------------------------  --------------------------------|
Bb-----------------------------------  --------------------------------|
Gb-----------------------------------  --------------------------------|
Db-8-8-8-8--3-3---7-7--7---7-7--7----  --------------------------------|
Ab-8-8-8-8--3-3---7-7--7---7-7--7----  --------------------------------|
Db-8-8-8-8--3-3---7-7--7---7-7--7----  ---0--3--0--8-7--0--3--3-5-5-7--|
pm                x x      x x

Eb------------------------------------------------------------------------|
Bb------------------------------------------------------------------------|
Gb----------------------------------------------------------------5-5-5-5-|
Db--------------------------------------------------------3-3-3-3-3-3-3-3-|
Ab--------------------------------------------------------3-3-3-3-3-3-3-3-|
Db-0--3--0--8-7--0--3-3-5-5~~0--3--0--8-7--0--3--3-5-5-7--3-3-3-3-3-3-3-3-|
                          PH

Eb---------------|
Bb---------------|
Gb---------9-9-9-|
Db-7-7-7-7-7-7-7-|
Ab-7-7-7-7-7-7-7-|
Db-7-7-7-7-7-7-7-|

2nd bridge
Eb--------------------------------|
Bb--------------------------------|
Gb--------------------------------|
Db-0-0--0-0--0-0--0-0-0-0-0-0-----|
Ab-0-0--0-0--0-0--0-0-0-0-0-0-----|x4
Db-0-0--0-0--0-0--0-0-0-0-0-0-----|
pm      x x       x x     x x
[ Tab from: http://www.guitartabs.cc/tabs/d/disturbed/stricken_tab_ver_4.html ]
solo
Eb-------------12^-12-------------------------------------------------------|
Bb-13^-13~--15--------15----------------------------------------------------|
Gb--------14-------------14--12-12-12h14p12p10---------10--------10------10-|
Db---------------------------------------------12-14-12--12-14-12---12-14---|
Ab--------------------------------------------------------------------------|
Db--------------------------------------------------------------------------|
pm                                              x  x  x   x  x  x    x  x

Eb-------------------------13-12---------15^-15-13-15s17----20^-20-17-18-17-|
Bb-----------------------15------15---15-----------------15-----------------|
Gb-12^-12^-12^-12^-10-14------------14--------------------------------------|
Db--------------------------------------------------------------------------|
Ab--------------------------------------------------------------------------|
Db--------------------------------------------------------------------------|

Eb-------------------------------------------------------------13-12-10---|
Bb-18-------------------------------------------------------12---------10-|
Gb----17^(17-17-17-17-17-17-17-17-17-17)-15-17-15-17--12-14---------------|
Db------------------------------------------------------------------------|
Ab------------------------------------------------------------------------|
Db------------------------------------------------------------------------|

Eb-13-12-10---13-12-10----13-12-10----15-12-10----15-12-10---15-12-10----|
Bb----------10---------10----------10----------10---------10----------10-|
Gb-----------------------------------------------------------------------|
Db-----------------------------------------------------------------------|
Ab-----------------------------------------------------------------------|
Db-----------------------------------------------------------------------|

Eb-15-12-10----15-12-10----15-------------------------------------8^---------|
Bb----------10----------10----10------10------10------10------10^----11-10-8-|
Gb-------------------------------10-12---10-12---10-12---10-12---------------|
Db---------------------------------------------------------------------------|
Ab---------------------------------------------------------------------------|
Db---------------------------------------------------------------------------|

Eb-
Bb-11-10-8-11-10-8--------------------|
Gb-----------------11-10-8-11-10-8----|
Db---------------------------------8~-|
Ab------------------------------------|
Db------------------------------------|

Eb------------------------------------------------------------------|
Bb------------------------------------------------------------------|
Gb------------------------------------------------------------------|
Db------------------------------------------------------------------|
Ab------------------------------------------------------------------|
Db-0--0-0--0-0--0-0--0-0--1-3-1-0--0-0--0-0--0-3-1-0-3-1-0-1-0--0-0-|

Eb-------------------------------------------------------------|
Bb-------------------------------------------------------------|
Gb------------------------------5-5-5-5-----------9-9-9--------|
Db----------------------3-3-3-3-3-3-3-3---7-7-7-7-7-7-7--------|
Ab----------------------3-3-3-3-3-3-3-3---7-7-7-7-7-7-7--------|
Db-0-0--0-0--0-0--1-3-1-3-3-3-3-3-3-3-3---7-7-7-7-7-7-7--------|

Eb-------------------------------------------------------------------|
Bb-------------------------------------------------------------------|
Gb-------------------------------------------------------------------|
Db-0--0-0--0-0--0-0--0-0--1-3-1-0--0-0--0-0--0-3-1-0-3-1-0-1-0--0-0--|
Ab-0--0-0--0-0--0-0--0-0--1-3-1-0--0-0--0-0--0-3-1-0-3-1-0-1-0--0-0--|
Db-0--0-0--0-0--0-0--0-0--1-3-1-0--0-0--0-0--0-3-1-0-3-1-0-1-0--0-0--|

Eb-------------------------------------------------------------------|
Bb-------------------------------------------------------------------|
Gb------------------------------5-5-5-5-----------9-9-9--------------|
Db-0-0--0-0--0-0--1-3-1-3-3-3-3-3-3-3-3---7-7-7-7-7-7-7--------------|
Ab-0-0--0-0--0-0--1-3-1-3-3-3-3-3-3-3-3---7-7-7-7-7-7-7--------------|
Db-0-0--0-0--0-0--1-3-1-3-3-3-3-3-3-3-3---7-7-7-7-7-7-7--------------|


Eb--------------------------------|
Bb--------------------------------|
Gb--------------------------------|
Db-0-3-0--8-7--0-3--5-5-5-5-5-5---|
Ab-0-3-0--8-7--0-3--5-5-5-5-5-5---|x8
Db-0-3-0--8-7--0-3--5-5-5-5-5-5---|
pm                  x x x x x x*

    key- ~ means vibrato
       - ^ bend full note
       - () keep bent for hole time in parenthesis
       - x dead note(underneath for pm)
       - pm palm mute
       - * means dont pm the last note
Comments