Disturbed - Stricken Chords & Tabs

 

Stricken Chords & Tabs

Disturbed Chords & Tabs

Version: 3 Type: Tab 0 ratings
1 star 2 stars 3 stars 4 stars 5 stars
comments

Stricken Tab

   
Band- Disturbed
Song- Stricken
Album- Ten Thousand Fists
Tuning- C G C F A D(drop D full step down)

Intro:

D|----------------------------------------|----------------------------|
A|----------------------------------------|----------------------------|
F|----------------------------------------|------------9999-10-10-77---|
C|----10-7---0-7---0-3--3-5---0h3p0-------|----33333---xxxx-x--x--xx---|
G|-----8-5---0-7---0-3--3-5---0h3p0-------|----33333---7777-8--8--55---|
C|--0--------0-7---0-3--3-5—--0h3p0-------|----33333-------------------|

Intro Ending: (Done in certain parts of the song...listen to know when to use it)

D|----------------------------------------------|
A|----------------------------------------------|
F|-----------12-12-14-14---9999-10-10-77--------|
C|--33-------x--x---x--x---xxxx-x--x--xx--------|
G|--33—------10-10-12-12---7777-8--8--55--------|
C|--33------------------------------------------|



Verse: (Note: Sometimes the Intro ending is in the verse...listen to find out when to use it)

D|-------------------------------------------------------------|-----------------------------|
A|-------------------------------------------------------------|-----------------------------|
F|-------------------------------------------------------------|---------9999-10-10-77-------|
C|-------------------------------------------------------------|-33333---xxxx-x--x--xx-------|
G|--0-00-00-00-0-03530-0-00-00-0-030353035--0-00-00-00-0-030---|-33333---7777-8--8--55-------|
C|--0-00-00-00-0-03530-0-00-00-0-030353035--0-00-00-00-0-030---|-33333-----------------------|
Pm  . .. .. .. . ..... . .. .. . .........  . .. .. .. . ...

Altered Verse:

D|--------------------------------------------------------------------------------|
A|--------------------------------------------------------------------------------|
F|--------------------------------------------------------------------------------|
C|--------------------------------------------------------------------------------|
G|--------------------------------------------------------------------------------|
C|---0-00-00-00-0-03530-0-00-00-0-030353035--0-00-00-00-0-030---------------------|



Chorus:
                                    \/ this is the part of the chorus where there is a slight pause
D|------------|-------------------|-------------------------------|
A|--3---------|-------------------|---3---------------------------|
F|--2---5-10--|-------------------|---2---5-10----------------10--|
C|--0---3-8---|--333--33—3--0000--|---0---3-8-------------3-0—8---|
G|--0---3-8---|--333--33—3--0000--|---0---3-8-pause-------3-0-8---|
C|--0---3-8---|--333--33—3--0000--|---0---3-8-------------3-0—8---|
Pm                    ..    ....


Intro Revised:

D|---------------------------------------------------------------|
A|---------------------------------------------------------------|
F|---------------------------------------------------------------|
C|---------------------------------------------------------------|
G|-----8-5------------------------------8-5----------------<7>br-|<<--pinch harmonic...bend and release
C|--0-------0-7---0-3--3-5---0h3p0---0-------0-7--0-3--3-5-------|


Bridge:

D|-----------------|---------|----------|
A|--3----3----33---|---------|----------|
F|--2----2----22---|--10-10--|----------|
C|--0-xx-0-xx-00---|--8--8---|---8888---| ίgradually release palm mute then strum it open
G|--0-xx-0-xx-00---|--8--8---|---8888---|
C|--0-xx-0-xx-00---|--8--8---|---8888---|
Pm                               ....

Guitar Solo: (Once again, full credit to M@G on the solo) 

D|------------------------------------|---------------------------------------------|
A|--13b-----13~--------------13-17-17b|-----17-15--------------------------------10~|
F|------------------12/14-------------|------------14--------10-12-12r-10--------10~|
C|------------------------------------|----------------9/12------------------12-----|
G|------------------------------------|---------------------------------------------|
C|------------------------------------|---------------------------------------------|
[ Tab from: http://www.guitartabs.cc/tabs/d/disturbed/stricken_tab_ver_3.html ]
|----------------------------------------------------------------------------12h13p12-|
|----------------10~-------------10~------------12~----12r--12r--12r--10~-------------|
|----------------10~-------------10~------------12~----12r--12r--12r--10~-------------|
|---12-10-12-12------12-10-12--------12-10-12-----------------------------------------|
|-------------------------------------------------------------------------------------|
|-------------------------------------------------------------------------------------|



|-------------------15b--15p13-15/17-------20b--20~--17~--18-17---------------|
|-----13--------13--------------------15~------------------------18-----------|
|--------12~-12-------------------------------------------------------17-19b--|
|-----------------------------------------------------------------------------|
|-----------------------------------------------------------------------------|
|-----------------------------------------------------------------------------|



|--------------------------------------------------|
|--------------------------------------------------|
|---19b19b19b19b19b19b19b19b19b19b19b19r--17h19~---|
|--------------------------------------------------|
|--------------------------------------------------|
|--------------------------------------------------|



|---------------------------------|
|--------------------13------10---|
|------7/10-12-12b-------12r------|
|---------------------------------|
|---------------------------------|
|---------------------------------|



|--13p10-12p10-------13p10-12p10-------13p10-12p10-------13p10-12p10-------13p10-15p10-13p10--------|
|--------------13p10-------------13p10-------------13p10-------------13p10--------------------13p10-|
|---------------------------------------------------------------------------------------------------|
|---------------------------------------------------------------------------------------------------|
|---------------------------------------------------------------------------------------------------|
|---------------------------------------------------------------------------------------------------|



|--15p10-13p10--------15p10-13p10-------15p10-13p10--------15p10---------------|
|-------------13p10---------------13p10--------------13p10--------13p10--------|
|------------------------------------------------------------------------------|
|------------------------------------------------------------------------------|
|------------------------------------------------------------------------------|
|------------------------------------------------------------------------------|



|------------------------------------------------------|
|--10---------10---------10---------10-----------------|
|------10-12-----10-12-----10-12--------------9r-------|
|--------------------------------------10-12-----------|
|------------------------------------------------------|
|------------------------------------------------------|


|----------------------------------------------------------------------------------------|
|----------------------------------------------------------------------------------------|
|--17b-14-15-14-12-14-13-12----12-13-12----12-14-15-14-12----12-14-15-14-12--------------|
|--------------------------15-----------15----------------15----------------14-15---12~--|
|----------------------------------------------------------------------------------------|
|----------------------------------------------------------------------------------------|


Ending 1:

D|-----------|
A|-----------|
F|-----------|
C|---5~------|
G|---5~------|  strum then give it a light bend
C|---5~-5b---|


Ending 2:

D|---------------------------------------------------------------|-------|
A|---------------------------------------------------------------|-------|
F|---------------------------------------------------------------|-------|
C|-0--8-5—0-7—0-3--0000—3p0----0----8-5---0-7---0-3—000000-------|---0---|
G|-0--8-5—0-7—0-3--0000—3p0----0----8-5---0-7---0-3—000000-------|---0---|
C|-0--8-5-0-7-0-3--0000-3p0----0----8-5---0-7---0-3—000000-------|---0---|
Pm                 ....                             ......
Comments