Disturbed - Shout 2000 Chords & Tabs

 

Shout 2000 Chords & Tabs

Disturbed Chords & Tabs

Version: 2 Type: Tab 0 ratings
1 star 2 stars 3 stars 4 stars 5 stars
comments

Shout 2000 Tab

   
*This is my first tab, the chords of the song are all correct, the timing
of the chords may be off but you can get the main picture and get it the
way you like it.The solo before the brige was too hard to tab it, I could
get it but most of it isn't correct so I didn't risk putting it on this
tab, Sorry.* 

Tuning:Db,Ab,Db,Gb,Bb,Eb

   Intro/Chorus:
Eb|---------------------------------------------------------------------------|
Bb|---------------------------------------------------------------------------|
Gb|---------------------------------------------------------------------------|
Db|-9-----------------------------9-------------------------------3-----------|
Ab|-9-----------------------------9-------------------------------3-----------|
Db|-9-9x-9x--9x-9x-9-9x-9x--9x-9x-9-9x-9x--9x-9x--9-9x-9x--9x-9x--3-3x-3x--3x-|

Eb|---------------------------------------------------------------------------|
Bb|---------------------------------------------------------------------------|
Gb|---------------------------------------------------------------------------|
Db|----------------3------------------------------0---------------------------|
Ab|----------------3------------------------------0--0x-0x-0x--0-0x-----------|
Db|-3x-3--3x-3x-3x-3-3x-3x--3x-3x-3-3x-3x--3x-3x--0--0x-0x-0x--0-0x-0x--0x-0x-|
[ Tab from: http://www.guitartabs.cc/tabs/d/disturbed/shout_2000_tab_ver_2.html ]
Eb|---------------------------------------------------------------------------|
Bb|---------------------------------------------------------------------------|
Gb|---------------------------------------------------------------------------|
Db|---------0-----------------------------9-----------------------------------|
Ab|------0x-0--0x-0x-0x--0-0x-------------9--9x-9x-9x--9-9x----------------9x-|
Db|-0x0x-0x-0--0x-0x-0x--0-0x-0x--0x-0x---9--9x-9x-9x--9-9x-9x--9x-9x-9x9x-9x-|

Eb|---------------------------------------------------------------------------|
Bb|---------------------------------------------------------------------------|
Gb|---------------------------------------------------------------------------|
Db|-9-------------------------------------------------------------------------|
Ab|-9--9x-9x-9x--9-9x-----------------------9x--------------------------------|
Db|-9--9x-9x-9x--9-9x-9x--9x-9x--9x-9x-9x9x-9x--------------------------------|
   Repeat 2x


   Verse:
Eb|---------------------------------------------------------------------------|
Bb|---------------------------------------------------------------------------|
Gb|---------------------------------------------------------------------------|
Db|-11-----11--11-----11------0-0-0-0--0-0--0-0--0-0-0-0--0-0-----------------|
Ab|-11-----11--11-----11------0-0-0-0--0-0--0-0--0-0-0-0--0-0-----------------|
Db|-11-----11--11-----11------0-0-0-0--0-0--0-0--0-0-0-0--0-0-----------------|
   Repeat 4x


   Bridge/Ontro:
Eb|------------------------------------12-------------------------------------|
Bb|---------------------------------------------------------------------------|
Gb|---------------------------------------------------------------------------|
Db|-9----7----11----9-------7----11-------------------------------------------|
Ab|-9----7----11----9-------7----11-------------------------------------------|
Db|-9----7----11----9-------7----11-------------------------------------------|
   Repeat 8x

Intro
Verse
Chorus
Verse
Chorus
Bridge
Verse(x2)
Chorus
Ontro

That's it, work with it to yor perfection. Enjoy, Thanks, and Rock On!!
Comments