Disturbed - Sacred Lie Chords & Tabs

 

Sacred Lie Chords & Tabs

Disturbed Chords & Tabs

Version: 1 Type: Tab 0 ratings
1 star 2 stars 3 stars 4 stars 5 stars
comments

Sacred Lie Tab

----Sacred Lie + Disturbed-----

-Tuning is: Drop C (All strings 1 step down, bass string an extra step on top of that)

------C G C F A D (low to high)------

V - Date: October 19/2005

Tabbed By: Jay Logan
Email: Subbliminal@DONTSPAM@hotmail.com
           -Just remove the 'DONTSPAM of course.


Legend - I suggest looking over it, there are some descriptions, as well as special cases.

 /  - Slide Right (If only 1 number just slide from anywhere towards it left to right)
 \  - Slide left (If only 1 number just slide from anywhere towards it right to left)
 ^  - Bend (5^7= bend the 5 fret until it sounds like 7, or 5^ = quick bend)
(~) - Vibrato (5(~) = Wiggle the string shown)
(5) - Natural Harmonic (Just put your finger lightly over the actually fret)
 - Artificial Harmonic (You pick the string and let your thumb touch as well while 
the fret shown)
 x  - Mute that string
 .  - Palm Mute (Mute the note shown with picking hand palm, the '.' is under the note)
 h  - Hammer On (ie..3h5 = pic the 3rd fret and then hammer your finger into the 5th 
picking)
 p  - Pull Off (opposite of hammer on, 5p3 = pic the 5th while holding the 3rd as well, 
pull your finger of the 5th)


---Intro---
NOTE: Let the Keep repeating the first part as needed.
      What Dan is doing is going up and down the string
      with the pic while playing Artificial Harmonics.
      This gives the alternating pitch on the 5 fret note
      while also grazing up and down on the string with the
      pic to produce the tube like sound in the background
      It is the best idea I could come up with, sounds pretty
      good.


  Repeat      Last time
D|--------|---------------------------------|
A|--------|---------------------------------|
F|--------|---------------------------------|
C|--------|---------------------------------|
G|--3--|-3---3---3-------5-3----|
C|--------|----------------------3-5-----3--|


---Intro Part 2---


D|----------------------------|------------------------------|
A|----------------------------|------------------------------|
F|----------------------------|------------------------------|
C|----------------------------|-----------------6-------6-6--|
G|-6-5---5--5-5--5-5--6-5-6-8-|-6-5---5--5-5--5-x---0-5-x-x--|
C|-0-0---0--0-0--0-0--0-0-0-0-|-0-0---0--0-0--0-6---0-0-6-6--|

D|----------------------------|------------------------------|
A|----------------------------|------------------------------|
F|----------------------------|------------------------------|
C|----------------------------|------------------------------|
G|-6-5---5--5-5--5-5--6-5-6-8-|-6-5---5--5-5--0-3-5--5-0-3-5-|
C|-0-0---0--0-0--0-0--0-0-0-0-|-0-0---0--0-0--0-3-5--0-0-3-5-|

---Verse---

D|------------------------------------------------------|
A|------------------------------------------------------|
F|------------------------------------------------------|
C|------------------------------------------------------|
G|-5--5h6p5-3-5---3-3-5-6-5---5h6p5-3---3-3-0-6-6-0-3-5-|
C|-0--0-0-0-0-0---0-0-0-0-0---0-0-0-0-------------------|
   .  . . . . .   . . . . .   . . . .


D|------------------------------------------------------|
A|------------------------------------------------------|
F|------------------------------------------------------|
C|-------------------------------------1-----------1--0-|
G|-5--5h6p5-3-5---3-3-5-6-5---5h6p5-3--1--1-1-1-1--1--0-|
C|-0--0-0-0-0-0---0-0-0-0-0---0-0-0-0--1--1-1-1-1--1--0-|
   .  . . . . .   . . . . .   . . . .     . . . .

D|------------------------------------------------------|
A|------------------------------------------------------|
F|------------------------------------------------------|
C|------------------------------------------------------|
G|-5--5h6p5-3-5---3-3-5-6-5---5h6p5-3---3-3-0-6-6-0-3-5-|
C|-0--0-0-0-0-0---0-0-0-0-0---0-0-0-0-------------------|


D|------------------------------------------------------|
A|------------------------------------------------------|
F|------------------------------------------------------|
C|-------------------------------------1-----------1--0-|
G|-5--5h6p5-3-5---3-3-5-6-5---5h6p5-3--1--1-1-1-1--1--0-|
C|-0--0-0-0-0-0---0-0-0-0-0---0-0-0-0--1--1-1-1-1--1--0-|

---Chorus---
* = Strum as needed

[ Tab from: http://www.guitartabs.cc/tabs/d/disturbed/sacred_lie_tab.html ]
   *        *            *        *             *        *           4 Times  4 Times
D|-5-------------------|-5--------------------|-5-------------------|-------|---------------------|
A|-x-------------------|-x--------------------|-x-------------------|-------|---------------------|
F|-7--------10--10--9--|-7--------10--10--12--|-7--------10--10--9--|-5-----|-3-------------------|
C|-7---7-7--8---x---x--|-7---7-7--8---x---x---|-7---7-7--8---10--9--|-5--5--|-3--3----------------|
G|-5---7-7--8---8---7--|-5---7-7--8---8---10--|-5---7-7--8---8---7--|-3--3--|-1--1----------------|
C|-0---7-7--8----------|-0---7-7--8-----------|-0---7-7--8----------|----5--|----3----------------|

Post Chorus Riff (The intro)


D|----------------------------|------------------------------|
A|----------------------------|------------------------------|
F|----------------------------|------------------------------|
C|----------------------------|-----------------6-------6-6--|
G|-6-5---5--5-5--5-5--6-5-6-8-|-6-5---5--5-5--5-x---0-5-x-x--|
C|-0-0---0--0-0--0-0--0-0-0-0-|-0-0---0--0-0--0-6---0-0-6-6--|

D|----------------------------|------------------------------|
A|----------------------------|------------------------------|
F|----------------------------|------------------------------|
C|----------------------------|------------------------------|
G|-6-5---5--5-5--5-5--6-5-6-8-|-6-5---5--5-5---------5-------|
C|-0-0---0--0-0--0-0--0-0-0-0-|-0-0---0--0-0--0-3-5--0-0-3-5-|
                                              . . .  . . . .


---Verse---

D|------------------------------------------------------|
A|------------------------------------------------------|
F|------------------------------------------------------|
C|------------------------------------------------------|
G|-5--5h6p5-3-5---3-3-5-6-5---5h6p5-3---3-3-0-6-6-0-3-5-|
C|-0--0-0-0-0-0---0-0-0-0-0---0-0-0-0-------------------|
   .  . . . . .   . . . . .   . . . .


D|------------------------------------------------------|
A|------------------------------------------------------|
F|------------------------------------------------------|
C|-------------------------------------1-----------1--0-|
G|-5--5h6p5-3-5---3-3-5-6-5---5h6p5-3--1--1-1-1-1--1--0-|
C|-0--0-0-0-0-0---0-0-0-0-0---0-0-0-0--1--1-1-1-1--1--0-|
   .  . . . . .   . . . . .   . . . .     . . . .

D|------------------------------------------------------|
A|------------------------------------------------------|
F|------------------------------------------------------|
C|------------------------------------------------------|
G|-5--5h6p5-3-5---3-3-5-6-5---5h6p5-3---3-3-0-6-6-0-3-5-|
C|-0--0-0-0-0-0---0-0-0-0-0---0-0-0-0-------------------|


D|------------------------------------------------------|
A|------------------------------------------------------|
F|------------------------------------------------------|
C|-------------------------------------1-----------1--0-|
G|-5--5h6p5-3-5---3-3-5-6-5---5h6p5-3--1--1-1-1-1--1--0-|
C|-0--0-0-0-0-0---0-0-0-0-0---0-0-0-0--1--1-1-1-1--1--0-|


---Chorus---
* = Strum as needed


   *        *            *        *             *        *           4 Times  4 Times
D|-5-------------------|-5--------------------|-5-------------------|-------|--------|
A|-x-------------------|-x--------------------|-x-------------------|-------|--------|
F|-7---9-9--10--10--9--|-7---9-9--10--10--12--|-7---9-9--10--10--9--|-5-----|-3------|
C|-7---7-7--8---x---x--|-7---7-7--8---x---x---|-7---7-7--8---10--9--|-5--5--|-3--3---|
G|-5---7-7--8---8---7--|-5---7-7--8---8---10--|-5---7-7--8---8---7--|-3--3--|-1--1---|
C|-0---7-7--8----------|-0---7-7--8-----------|-0---7-7--8----------|----5--|----3---|


---BreakDown---
NOTE: Only mute the E (C in this Tuning) and A (G in this Tuning) strings, always sound
the obiviously un-muted notes.

D|----------------------------|------------------------------|
A|----------------------------|------------------------------|
F|----------------------------|------------------------------|
C|----------------------------|-----------------6-------6-6--|
G|-6-5---5--5-5--5-5--6-5-6-8-|-6-5---5--5-5--5-x---0-5-x-x--|
C|-0-0---0--0-0--0-0--0-0-0-0-|-0-0---0--0-0--0-6---0-0-6-6--|

NOTE: Repeat as needed (Below)

D|-----------------------------------------------------------|
A|-----------------------------------------------------------|
F|-----------------------------------------------------------|
C|--------------------6------5---------------7-----5-0-3-5---|
Comments