Disturbed - Rise Chords & Tabs

 

Rise Chords & Tabs

Disturbed Chords & Tabs

Version: 1 Type: Bass Tab 0 ratings
1 star 2 stars 3 stars 4 stars 5 stars
comments

Rise Bass Tab

   
Tuning-Bb, Db, Ab, Db, Gb

Intro Both riffs x2
Gb---------------------------------------------------------------------|
Db---------------------------------------------------------------------|
Ab---------------------------------------------------------------------|
Db-10h12-0-12-0-12-0-12-12-10h12-10--10h12-0-12-0-12-0-12-12-10h12-10--|
Bb---------------------------------------------------------------------|

Gb-------------------------------------------------------------|
Db-------------------------------------------------------------|
Ab-------------------------------------------------------------|
Db-10h12-0-12-0-12-0-12-12-10h12-10-6-6-6-6/15-15-15-10-10-10--|
Bb-------------------------------------------------------------|


Verse   Both riffs x4
Gb---------------------------------------------------------------------|
Db---------------------------------------------------------------------|
Ab---------------------------------------------------------------------|
Db-10h12-0-12-0-12-0-12-12-10h12-10--10h12-0-12-0-12-0-12-12-10h12-10--|
Bb---------------------------------------------------------------------|

Gb-------------------------------------------------------------|
Db-------------------------------------------------------------|
Ab-------------------------------------------------------------|
Db-10h12-0-12-0-12-0-12-12-10h12-10-6-6-6-6/15-15-15-10-10-10--|
Bb-------------------------------------------------------------|

Gb-----------------|
Db-----------------|  x4
Ab-----------------|
Db-0-0-0-0--0-0-0--|
Bb-----------------|

Chorus
Gb----------------------------------------------------------------|
Db-------10-10-10-10-10-------10-10-10-10-10--------10-10-10------|
Ab-5--5--8--8--8--8--8--5--5--8--8--8--8--8---5--5--8--8--8--8-8--|
Db----------------------------------------------------------------|
Bb----------------------------------------------------------------|

Gb----------------------|
Db------------7------5--|
Ab-7--7-7-7-7---7-7-----|
Db----------------------|
Bb----------------------|

Gb----------------------------------------------------------------|
Db-------10-10-10-10-10-------10-10-10-10-10--------10-10-10------|
Ab-5--5--8--8--8--8--8--5--5--8--8--8--8--8---5--5--8--8--8--8-8--|
Db----------------------------------------------------------------|
Bb----------------------------------------------------------------|

Gb----------------------|
Db------------7------5--|
Ab-7--7-7-7-7---7-7-----|
Db----------------------|
Bb----------------------|

Bridge
Gb---------------------------------------------------------|
Db----------------------------------------------------12\--|
Ab---------------------------------------------------------|
Db-8-8-8-8-8-8-8--8--10--0--8-8-8-8-8-8-8--8--10--12-------|
Bb---------------------------------------------------------|

Gb-----------------------------------------------------------------------|
Db-----------------------------------------------------------------------|
Ab-----------------------------------------------------------------------|
Db-8-8-8-8-8-8-8--8--10--0--3-3-3-3-3-3-3-3-3-3-3-3-8-8-8-8-8-8-8-8-8-8--|
Bb-----------------------------------------------------------------------|

Gb--------------------------------------------------------------------|
Db--------------------------------------------------------------------|
Ab--------------------------------------------------------------------|
Db-10h12-0-12-0-12-0-12-12-10h12-10--10h12-0-12-0-12-0-12-12-10h12-10-|
Bb--------------------------------------------------------------------|

Gb-------------------------------------------------------------|
Db-------------------------------------------------------------|
Ab-------------------------------------------------------------|
Db-10h12-0-12-0-12-0-12-12-10h12-10-6-6-6-6/15-15-15-10-10-10--|
Bb-------------------------------------------------------------|

Verse   Both riffs x2
Gb---------------------------------------------------------------------|
Db---------------------------------------------------------------------|
Ab---------------------------------------------------------------------|
Db-10h12-0-12-0-12-0-12-12-10h12-10--10h12-0-12-0-12-0-12-12-10h12-10--|
Bb---------------------------------------------------------------------|
[ Tab from: http://www.guitartabs.cc/tabs/d/disturbed/rise_btab.html ]
Gb-------------------------------------------------------------|
Db-------------------------------------------------------------|
Ab-------------------------------------------------------------|
Db-10h12-0-12-0-12-0-12-12-10h12-10-6-6-6-6/15-15-15-10-10-10--|
Bb-------------------------------------------------------------|

Pre-Chorus
Gb-----------------|
Db-----------------|  x4
Ab-----------------|
Db-0-0-0-0--0-0-0--|
Bb-----------------|

Chorus
Gb----------------------------------------------------------------|
Db-------10-10-10-10-10-------10-10-10-10-10--------10-10-10------|
Ab-5--5--8--8--8--8--8--5--5--8--8--8--8--8---5--5--8--8--8--8-8--|
Db----------------------------------------------------------------|
Bb----------------------------------------------------------------|

Gb----------------------|
Db------------7------5--|
Ab-7--7-7-7-7---7-7-----|
Db----------------------|
Bb----------------------|

Gb----------------------------------------------------------------|
Db-------10-10-10-10-10-------10-10-10-10-10--------10-10-10------|
Ab-5--5--8--8--8--8--8--5--5--8--8--8--8--8---5--5--8--8--8--8-8--|
Db----------------------------------------------------------------|
Bb----------------------------------------------------------------|

Gb----------------------|
Db------------7------5--|
Ab-7--7-7-7-7---7-7-----|
Db----------------------|
Bb----------------------|

Bridge
Gb---------------------------------------------------------|
Db----------------------------------------------------12\--|
Ab---------------------------------------------------------|
Db-8-8-8-8-8-8-8--8--10--0--8-8-8-8-8-8-8--8--10--12-------|
Bb---------------------------------------------------------|

Gb-----------------------------------------------------------------------|
Db-----------------------------------------------------------------------|
Ab-----------------------------------------------------------------------|
Db-8-8-8-8-8-8-8--8--10--0--3-3-3-3-3-3-3-3-3-3-3-3-8-8-8-8-8-8-8-8-8-8--|
Bb-----------------------------------------------------------------------|

Interlude
Gb-----------------------------------------|
Db-----------------------------------------|  x8
Ab-----------------------------------------|
Db-0-0--3-1-0-0--1-3-0-0--3-1-0-1-0-1-0-3--|
Bb-----------------------------------------|

Gb-----------------------------------------------|
Db-----------------------------------------------|
Ab-----------------------------------------------|
Db-8-8-8-8-8-8-8-8-8-8-8-8-8-8-8-8-8-8-8-8-8-10--|
Bb-----------------------------------------------|

Bridge
Gb---------------------------------------------------------|
Db----------------------------------------------------12\--|
Ab---------------------------------------------------------|
Db-8-8-8-8-8-8-8--8--10--0--8-8-8-8-8-8-8--8--10--12-------|
Bb---------------------------------------------------------|

Gb----------------------------------------------------------------------|
Db----------------------------------------------------------------------|
Ab----------------------------------------------------------------------|
Db8-8-8-8-8-8-8--8--10--0--3-3-3-3-3-3-3-3-3-3-3-3-8-8-8-8-8-8-8-8-8-10-|
Bb----------------------------------------------------------------------|

Gb-----------------------------|
Db-----------------------------|  x3
Ab-----------------------------|
Db-8-8-8-8-8-8----0-0-0-0-0-0--|
Bb-----------------------------|

Gb------------------------------------|
Db------------------------------------|
Ab------------------------------------|
Db-3-3-3-3-3-3-3-3-3-333888888888888--|
Bb------------------------------------|

Outro   Both riffs x4
Gb---------------------------------------------------------------------|
Db---------------------------------------------------------------------|
Ab---------------------------------------------------------------------|
Db-10h12-0-12-0-12-0-12-12-10h12-10--10h12-0-12-0-12-0-12-12-10h12-10--|
Bb---------------------------------------------------------------------|

Gb-------------------------------------------------------------|
Db-------------------------------------------------------------|
Ab-------------------------------------------------------------|
Db-10h12-0-12-0-12-0-12-12-10h12-10-6-6-6-6/15-15-15-10-10-10--|
Bb-------------------------------------------------------------|

Gb------|
Db------|
Ab------|
Db-12\--
Bb------

Thanks, please rate it after you learn it.
Comments