Disturbed - Remember Chords & Tabs

 

Remember Chords & Tabs

Disturbed Chords & Tabs

Version: 3 Type: Tab 0 ratings
1 star 2 stars 3 stars 4 stars 5 stars
comments

Remember Tab

Arist : Disturbed
Song : Remember
Album : Believe

Tabbed By : Matt Stroud
(played Drop D,half step down)

X- Palm Mute
'- Half-Step Bend
"- Full-Step Bend
h- Hammer On
p- Pull Off
/- Slide
()- Tied Note

I play it this way and it sounds pretty good.

INTRO  x8

|-----------------------------------------------------------|
|-----------------------------------------------------------|
|-----------------------------------------------------------|
|-0--2-3-8--0-0-0-0-7--0-3-0-3--0--2-3-8--0-0-0-0-7--0-3--0-|
|-0--2-3-8--0-0-0-0-7--0-3-0-3--0--2-3-8--0-0-0-0-7--0-3--0-|
|-0--2-3-8--0-0-0-0-7--0-3-0-3--0--2-3-8--0-0-0-0-7--0-3--0-|
     X X    X X X X    X X X X     X X    X X X X         X

VERSE x2

|---------------------------------------------------------------|
|---------------------------------------------------------------|
|---------------------------------------------------------------|
|---------------------------------------------------------------|
|----------13----------12------------------------13----------12-|
|-0--12-15-----0-12-15-----0-12-15-0-15-0--12-15-----0-12-15----|

|-----------------------------------------------------------------------|
|-----------------------------------------------------------------------|
|-----------------------------------------------------------------------|
|--------------------------------------------------------------10-10-10-|
|----------13----------12------------------------13---------12-10-10-10-|
|-0--12-15-----0-12-15-----0-12-15-0-15-0--12-15----0-12-15----10-10-10-|

CHORUS 

|---------------------------------------------------------|
|---------------------------------------------------------|
|---------------------------------------------------------|
|---10-7---------------10-7---------------10-7------------|
|-8------10-8-7-5-3--8------10-8-7-5-3--8------10-8-7-5-3-|
|---------------------------------------------------------|

|----------------------------------------|
|----------------------------------------|
|----------------------------------------|
|---10-7-----------------5-5-3-3---------|
|-8------10-8-7-5-3--3-5---------5-5-3h5-|
|----------------------------------------|

|-----------------------------------------|
|-----------------------------------------|
|-----------------------------------------|
|---10-7----------------------------10-10-|
|-8------10-8-7-5/7-8-8-10-10-12-12-------|
|-----------------------------------------|

|----------------------------------------------------------------|
|----------------------------------------------------------------|
|-10-10-10-----10-10-10-----10-10--------10-10-10----10-10-10----|
|----------10-----------10--------10/12-----------12----------12-|
|----------------------------------------------------------------|
|----------------------------------------------------------------|

|------------------------------------------------------|
|------------------------------------------------------|
|-10-10--------12-14-12'---------------12-14-12'-12-10-|
|-------10/12------------12--10--12p10-----------------|
|------------------------------------------------------|
|------------------------------------------------------|

|---------------------------------|
|---------------------------------|(end on this)
|-14"-(14)------------------------|
|-----------12"-(12)--------------| 
|--------------------12"-(12)-----|
|------------------------------12-|

VERSE 2  x2
|---------------------------------------------------------------|
|---------------------------------------------------------------|
|---------------------------------------------------------------|
|---------------------------------------------------------------|
|----------13----------12------------------------13----------12-|
|-0--12-15-----0-12-15-----0-12-15-0-15-0--12-15-----0-12-15----|
     X  X      X X  X      X X  X  X X      X X      X X  X
[ Tab from: http://www.guitartabs.cc/tabs/d/disturbed/remember_tab_ver_3.html ]
|---------------------------------------------------------------------|
|---------------------------------------------------------------------|
|---------------------------------------------------------------------|
|------------------------------------------------------------10-10-10-|
|----------13----------12------------------------13----------10-10-10-|
|-0--12-15-----0-12-15-----0-12-15-0-15-0--12-15-----0-12-15-10-10-10-|     
     X  X      X X  X      X X  X  X X     X  X      X X  X

Repeat Chorus,but end on this
|---------------|     
|---------------|
|-14"-----------|
|------12"------|
|---------------|
|---------------|

BRIDGE
|------------------------------------------------|
|------------------------------------------------|
|------------------------------------------------|
|-8---X-X-8/12--12--12-12--8--3-3-3-0--0--0--3-0-|
|-8---X-X-8/12--12--12-12--8--3-3-3-0--0--0--3-0-|
|-8---X-X-8/12--12--12-12--8--3-3-3-0--0--0--3-0-|

|---------------------------------------------|
|---------------------------------------------|
|---------------------------------------------|
|-8---X-X-8/12--12--12-12--8--3--0--0--0--0-0-|
|-8---X-X-8/12--12--12-12--8--3--0--0--0--0-0-|
|-8---X-X-8/12--12--12-12--8--3--0--0--0--0-0-|

|------------------------------------------------|
|------------------------------------------------|
|------------------------------------------------|
|-8---X-X-8/12--12--12-12--8--3-3-3-0--0--0--3-0-|
|-8---X-X-8/12--12--12-12--8--3-3-3-0--0--0--3-0-|
|-8---X-X-8/12--12--12-12--8--3-3-3-0--0--0--3-0-|

|----------------------------------|
|----------------------------------|
|----------------------------------|
|-5--5--5--5--5-5--2--2--2--2--2-2-|
|-5--5--5--5--5-5--2--2--2--2--2-2-|
|-5--5--5--5--5-5--2--2--2--2--2-2-|

INTERLUDE
|-----------------------------------------------------|
|-----------------------------------------------------|
|-----------------------------------------------------|
|-----------------------------------------------------|
|-0-2-3-8-0-0-0-0-7-0-3-0-3-0-2-3-8-0-0-0-0-7-0-3-0-3-|
|-0-2-3-8-0-0-0-0-7-0-3-0-3-0-2-3-8-0-0-0-0-7-0-3-0-3-|
  X X X   X X X X   X X X X X X X   X X X X   X X X X

Repeat chorus,but end on this.
|-----------------|     
|-----------------|
|-14"-14----------|
|-----------------|
|-----------------|
|-----------------|

|-----------------|     
|---------12------|
|-14"-14----------|
|-----------------|
|-----------------|
|-----------------|

OUTRO
|----------------------------------------------------------|
|----------------------------------------------------------|
|----------------------------------------------------------|
|-0--2-3-8--0-0-0-0-7--0-3-0-3-0--2-3-8--0-0-0-0-7--0-3--0-|
|-0--2-3-8--0-0-0-0-7--0-3-0-3-0--2-3-8--0-0-0-0-7--0-3--0-|
|-0--2-3-8--0-0-0-0-7--0-3-0-3-0--2-3-8--0-0-0-0-7--0-3--0-|     
     X X    X X X X    X X X X    X X    X X X X 

|------------------------------------------------------------|   
|------------------------------------------------------------|   
|------------------------------------------------------------|  
|-0--2-3-8--0-0-0-0-7--0-3-0-3-0--2-3-8--0-0-0-0-7-0-0-3-0-7-|
|-0--2-3-8--0-0-0-0-7--0-3-0-3-0--2-3-8--0-0-0-0-7-0-0-3-0-7-|
|-0--2-3-8--0-0-0-0-7--0-3-0-3-0--2-3-8--0-0-0-0-7-0-0-3-0-7-|
     X X    X X X X    X X X X    X X    X X X X

|----------------------------------------------------------|
|----------------------------------------------------------|
|----------------------------------------------------------|
|-0--2-3-8--0-0-0-3-7--0-3-0-3-0--2-3-8--0-0-0-0-7--0-3--0-|
|-0--2-3-8--0-0-0-3-7--0-3-0-3-0--2-3-8--0-0-0-0-7--0-3--0-|
|-0--2-3-8--0-0-0-3-7--0-3-0-3-0--2-3-8--0-0-0-0-7--0-3--0-|     
     X X    X X X X    X X X X    X X    X X X X 

|--------------------------------------------------------|
|--------------------------------------------------------|
|--------------------------------------------------------|
|-0--2-3-8--0-0-0-0-7--0-3-0-3-0--2-3-8--0-0-0-0-7--0-3--|
|-0--2-3-8--0-0-0-0-7--0-3-0-3-0--2-3-8--0-0-0-0-7--0-3--|
|-0--2-3-8--0-0-0-0-7--0-3-0-3-0--2-3-8--0-0-0-0-7--0-3--|     
     X X    X X X X    X X X X    X X    X X X X

Comments? Corrections? Just want to talk?
My email / MSN is : gorerider@hotmail.com
Comments