Disturbed - Remember Chords & Tabs

 

Remember Chords & Tabs

Disturbed Chords & Tabs

Version: 2 Type: Tab 0 ratings
1 star 2 stars 3 stars 4 stars 5 stars
comments

Remember Tab

   
Tuning - (Db Ab Db Gb Bb Eb)
Intro:
|------------------------------------------------------------|
|------------------------------------------------------------|
|--------3-----------------------------3---------------------|
|-0--0-3-3--0-3-0-3-7--0-3-0-3--0--0-3-3--0-3-0-3-7--0-3--3--|
|-0--0-3-1--0-3-0-3-7--0-3-0-3--0--0-3-1--0-3-0-3-7--0-3--3--|
|-0--0-3----0-3-0-3-7--0-3-0-3--0--0-3----0-3-0-3-7--0-3--3--|

|--------------------------------------------------------------|
|--------------------------------------------------------------|
|--------3-----------------------------3-----------------------|
|-0--0-3-3--0-3-0-3-7--0-3-0-3--0--0-3-3--0-3-0-3-7--0-0-3-0-7-|
|-0--0-3-1--0-3-0-3-7--0-3-0-3--0--0-3-1--0-3-0-3-7--0-0-3-0-7-|
|-0--0-3----0-3-0-3-7--0-3-0-3--0--0-3----0-3-0-3-7--0-0-3-0-7-|

Verse:
|------------------------------------------------------------|
|------------------------------------------------------------|
|------------------------------------------------------------|
|------------------------------------------------------------|
|----------13----------12--------------------------13--------|
|-0--12-15-----0-12-15-----0-12-15-0-15--0--12-15------------|

|------------------------------------------------------------|
|------------------------------------------------------------|
|------------------------------------------------------------|
|------------------------------------------------------------|
|---------12-----------13-----------12-----------------------|
|-0-12-15----0---12-15-----0--12-15-----0-12-15-0-15---------|

|------------------------------------------------------------|
|------------------------------------------------------------|
|------------------------------------------------------------|
|----------------------10-10-10------------------------------|
|---------13-----------10-10-10------------------------------|
|-0-12-15-----0--12-15-10-10-10------------------------------|

Chorus:
|------------------------------------------------------------|
|------------------------------------------------------------|
|----5-------------repeat 4x-------------------repeat 2x-----|
|-/7---7-5-3-3-0--------------5-5-3-3-0----------------------|
|----------------3----------------------0-3-5----------------|
|------------------------------------------------------------|
[ Tab from: http://www.guitartabs.cc/tabs/d/disturbed/remember_tab_ver_2.html ]
|------------------------------------------------------------|
|-----------------------------------6-6-6-------6-6-6--------|
|----5--------------------------5-7-------5-5-5-------5-5-5--|
|-/7---7-5-3-3-0----3-3-5-5-7-7------------------------------|
|----------------3-------------------------------------------|
|------------------------------------------------------------|

|------------------------------------------------------------|
|--6-6-----6-6-6-------6-6-6-------6-6-----8~--8^10^8--6-----|
|------5-7-------7-7-7-------7-7-7-----5-7---------------7---|
|------------------------------------------------------------|
|------------------------------------------------------------|
|------------------------------------------------------------|

|------------------------------------------------------------|
|-----------8~--8^10^8-6-8--6--8^----------------------------|
|--5--5-7p5--------------------------------------------------|
|------------------------------------------------------------|
|------------------------------------------------------------|
|------------------------------------------------------------|

Break:
|----------------------------------------------------------|
|----------------------------------------------------------|
|----------------------------------------------------------|
|-8-8-X-X-8/12--12--12-12\-8--3--0--0--0--0-3-0--repeat 3x-|
|-8-8-X-X-8/12--12--12-12\-8--3--0--0--0--0-3-0------------|
|-8-8-X-X-8/12--12--12-12\-8--3--0--0--0--0-3-0------------|

|----------------------------------|
|----------------------------------|
|----------------------------------|
|-5--5--5--5--5-5--2--2--2--2--2-2-|
|-5--5--5--5--5-5--2--2--2--2--2-2-|
|-5--5--5--5--5-5--2--2--2--2--2-2-|

Break II:
|------------------------------------------------------------|
|------------------------------------------------------------|
|----------3-3-----------------------------------------------|
|--0-0-0-3-3-3-0-0-0-3-7-7--0-3-0-3--repeat 7x---------------|
|--0-0-0-3-1-1-0-0-0-3-7-7--0-3-0-3--------------------------|
|--0-0-0-3-----0-0-0-3-7-7--0-3-0-3--------------------------|

|------------------------------------------------------------|
|------------------------------------------------------------|
|----------3-3-----------------------------------------------|
|--0-0-0-3-3-3-0-0-0-5-3----3--------------------------------|
|--0-0-0-3-1-1-0-0-0-5-3----3--------------------------------|
|--0-0-0-3-----0-0-0-5-3----3--------------------------------|
Comments