Disturbed - Remember Chords & Tabs

 

Remember Chords & Tabs

Disturbed Chords & Tabs

Version: 1 Type: Tab 1 rating
1 star 2 stars 3 stars 4 stars 5 stars
comments

Remember Tab

Disturbed
Remember
Believe
metallicos02@hotmail.com


INTRO
		       pm--|      pm-----|        pm------|
-----------------------------------------------------------
-----------------------------------------------------------
-------------------7---------------------------------------
-------------------5---------2---x-x-x-x-8----0-2-0-2
-------------------0---x-x---2---x-x-x-x-8----0-2-0-2
-------------------0---x-x---0---x-x-x-x-8----0-2-0-2



                              pm--|       pm------|   
-----------------------------------------------------------
-----------------------------------------------------------
-------------------7---------------------------------------
-------------------5---------2---x-x-x-x-8---0-0---0-
-------------------0---x-x---2---x-x-x-x-8---0-0---0-
-------------------0---x-x---0---x-x-x-x-8---0-0---0-


		       pm--|      pm-----|        pm------|
-----------------------------------------------------------
-----------------------------------------------------------
-------------------7---------------------------------------
-------------------5---------2---x-x-x-x-8----0-2-0-2
-------------------0---x-x---2---x-x-x-x-8----0-2-0-2
-------------------0---x-x---0---x-x-x-x-8----0-2-0-2


                             pm--|      pm-----|      pm--|  
-----------------------------------------------------------
-----------------------------------------------------------
-------------------7---------------------------------------
-------------------5---------2---x-x-x-x-8-x-x-3-x-2
-------------------0---x-x---2---x-x-x-x-8-x-x-3-x-2
-------------------0---x-x---0---x-x-x-x-8-x-x-3-x-2


Repeat Intro

Verse


-----------------13------------12------------------
0---12----15-------0-12-15-----0-12-15-12-15



--------------13-----------12-----------13----------12-----------------
0---12---15------0-12-15----0-12-15-----0-12-15---0-12-15-12-15

[ Tab from: http://www.guitartabs.cc/tabs/d/disturbed/remember_tab.html ]
-------------13--------------10-10-10----
0---12---15-----0-12-15----10-10-10----


Chorus

----------------------------------
----------------------------------
------5--------------------------              repeat several times
---7----7-5-3-3----------------
------------------5-3-----------
---------------------------------



----------------------------------------
----------------------------------------
----------------------------------------
-5-5-5-3-3-3-6-6-6-4-4-4-5-3-----
---------------------------------5-3
---------------------------------------


---------------------------------------
---------------------------------------
------5--------------------------------   x2
---7----7-5-3-3---------------------
------------------5-3-----------------






-------------------------------------------
-------------------------------------------
-6-6-6--------6-6-6--------6---6-------
--------5-5-5--------5-5-5---5---7-----
-------------------------------------------
-------------------------------------------



------------------------------------------
------------------------------------------
-7-7-7--------7-7-7--------7---7------
--------6-6-6--------6-6-6---6---8----
------------------------------------------
------------------------------------------

           bend
-------------------------------------------
-------------------------------------------
--12---12-----10~----------------------
----------------------12---10h12o10---
-------------------------------------------
-------------------------------------------

          bend
---------------------------------------
---------------------------------------
-12---12---14~--12---14/15/14---
---------------------------------------
---------------------------------------
---------------------------------------



8---8/12-12-12---5-5-3
8---8/12-12-12---5-5-3
8---8/12-12-12---5-5-3


5-5-5-5-5-5-5-5/2-2-2-2-2-2-2-2-2
5-5-5-5-5-5-5-5/2-2-2-2-2-2-2-2-2
5-5-5-5-5-5-5-5/2-2-2-2-2-2-2-2-2
Comments