Disturbed - Prayer Chords & Tabs

 

Prayer Chords & Tabs

Disturbed Chords & Tabs

Version: 9 Type: Tab 0 ratings
1 star 2 stars 3 stars 4 stars 5 stars
comments

Prayer Tab

This is the 100% correct tab. I got it from the book so its correct.

x--mute
\--slide up
/--slide down
pm....--palm mute

tuning drop D half step down low to high DbAbDbGbBbEb

intro
|----|-----------------------------------------------------------------
|----|-----------------------------------------------------------------
|----|-----------------------------------------------------------------
|----|-----------------------------------------------------------------
|-12-|-12---12-12-12-12-12---12---12-12-12-12-12---15---15-15-15-15-15-
|--0-|--0----0-13--0-13--0----0----0-13--0-13--0----0----0-13--0-13--0-
pm .    .    .  .  .  .  .    .    .  .  .  .  .    .    .  .  .  .  .
---------------------------------------------------------------------
---------------------------------------------------------------------
---------------------------------------------------------------------
---------------------------------------------------------------------
---18-18-18-18---17-17---12---12-12-12-12-12---15---15-15-15-15-15---
----0--0--0-13----0-13----0----0-13--0-13--0----0----0-13--0-13--0---
pm  .  .  .  .    .  .    .    .  .  .  .  .    .    .  .  .  .  .
[ Tab from: http://www.guitartabs.cc/tabs/d/disturbed/prayer_tab_ver_9.html ]
--------------------|
--------------------|
--------------------|
------------13-10---|
-18-18-18---13-10---|
--0--0--0---13-10---|
pm.  .  .
fill
|-----------------------------|
|-----------------------------|
|-----------------------------|
|-----------------------------|
|-------------------------0---|
|-0---0---0-0-0-0-0---0---0---|
pm.   .   . . . . .   .   .
verse
|-------------------------------------------------------|
|-------------------------------------------------------|
|-------------------------------------------------------|
|-------------------------------------------------13-10-|
|-------------------------------------------------13-10-|
|-0---0---0-0-0-0-0---0---0---0-0-0-0-0---0---0---13-10-|
pm.   .   . . . . .   .   .   . . . . .   .   .
"another dream that will"...
pre-chorus
|-------------------------------------------------------------
|-------------------------------------------------------------
|-------------------------------------------------------------
|-7\x-x-1-1-1-1-3-8---7\x-x-1-1-1-1-3-1---7\x-x-1-1-1-1-3-8---
|-7\x-x-1-1-1-1-3-8---7\x-x-1-1-1-1-3-1---7\x-x-1-1-1-1-3-8---
|-7\x-x-1-1-1-1-3-8---7\x-x-1-1-1-1-3-1---7\x-x-1-1-1-1-3-8---
                   "let me enlighten you"
-----------------|
-----------------|
-----------5---5-|
-7\x---x---3---3-|
-7\x---x---3---3-|
-7\x---x---3---3-|
"this is the way i pray"
chorus
|----------------------------------------------------------------------
|----------------------------------------------------------------------
|----------------------5-5-7-7-7-7\5-5/10-10---------------------------
|-10-10-10-10-10-x-x---3-3-5-5-5-5\3-3/8--10---12-14-10-10-10-12-12-12-
|--8--8--8--8--8-x-x---3-3-5-5-5-5\3-3/8---8---12-12-10-10-10-10-10-10-
|--8--8--8--8--8-x-x---3-3-5-5-5-5\3-3/8---8---12-12-10-10-10-10-10-10-
"living just isnt hard enough"

-----------------------------------------------------------------------
-----------------------------------------------------------------------
-5/10-10---------------------------------------------------------------
-3/8--10-12-12-14-14-10-10-10-12-12-12---8---8-8-8-8-8---8---8-8-8-8-8-
-3/8---8-12-12-12-12-10-10-10-10-10-10---8---8-8-8-8-8---8---8-8-8-8-8-
-3/8---8-12-12-12-12-10-10-10-10-10-10---8---8-8-8-8-8---8---8-8-8-8-8-

--------------------------------------------------------------------|
--------------------------------------------------------------------|
--------------------------------------------------------------------|
-8---8-8-8-8-8---8---8-8-8-8-8---8---8-8-8-8-8---8---8-8-8-8-8------|
-8---8-8-8-8-8---8---8-8-8-8-8---8---8-8-8-8-8---8---8-8-8-8-8---12-|
-8---8-8-8-8-8---8---8-8-8-8-8---8---8-8-8-8-8---8---8-8-8-8-8----0-|
pm                                                                .  
bridge
|-------------------------------------------------
|-------------------------------------------------
|-------------------------------------------------
|-------------------------------------------------
|-------------------------------------------------
|-2-2-0-2---2-2-0-2---0-2-0-2---2-0-2---2-0-2---3-

----------------------------------------------|
----------------------------------------------|
----------------------------------------------|
-----------------------------------------3-3-3|
-----------------------------------------3-3-3|
-2-2-0-2---2-2-0-2---0-2-0-2---2-2-0-2---3-3-3|
pm                                       . . . 

outro
|-------------------------------------------------------
|-------------------------------------------------------
|-------------------------------------------------------
|-------------------------------------------------------
|-------------------------------------------------------
|-0---0-0-0-0-0---0---0-0-0-0-0---0---0-0-0-0-0---0---0-

when i was first tabbing this song i had the book and saved it.This time i didnt
have the book and i coudnt remember exactly how the coda went so i didnt tab it
but ill have it tabbed out later
Comments