Disturbed - Prayer Chords & Tabs

 

Prayer Chords & Tabs

Disturbed Chords & Tabs

Version: 8 Type: Tab 0 ratings
1 star 2 stars 3 stars 4 stars 5 stars
comments

Prayer Tab

e:-------------------------------------------------------------------
B:-------------------------------------------------------------------
G:-------------------------------------------------------------------
D:------------------------------------------------------------------5
A:------------------------------------------------------------------3
E:-2-2-0-2-2-2-0-2-0-2-0-2-2--0-2-2-0-2-3-2-2-0-2-0-2-0-2-2-2-2-0-2-3

e:-------------------------------------------------------------------
B:-------------------------------------------------------------------
G:-------------------------------------------------------------------
D:-------------------------------------5-----------------------------
A:2-2-0-2-2-2-0-2-0-2-0-2--2-0-2-2-0-2-3-----------------------------
E:2-2-0-2-2-2-0-2-0-2-0-2--2-0-2-2-0-2-3-----------------------------
[ Tab from: http://www.guitartabs.cc/tabs/d/disturbed/prayer_tab_ver_8.html ]
Comments