Disturbed - Prayer Chords & Tabs

 

Prayer Chords & Tabs

Disturbed Chords & Tabs

Version: 4 Type: Tab 0 ratings
1 star 2 stars 3 stars 4 stars 5 stars
comments

Prayer Tab

   
                             DISTURBED
                              PRAYER

By God Of F**k

You only need to tune the bottom strings but ill give you the full tuning

Tuning B F# B E G# C#

Intro x2

------------------------------------------------------------
------------------------------------------------------------
------------------------------------------------------------
-14-14--14-15-14-15--14-14--14-15-14-15--14-14--14-15-14-15-
-14-14--14-15-14-15--14-14--14-15-14-15--14-14--14-15-14-15-
-14-14--14-15-14-15--14-14--14-15-14-15--14-14--14-15-14-15-

--------------------------------------------------------------------
--------------------------------------------------------------------
--------------------------------------------------------------------
-14-14--14-15-14-15--14-14--14-15-14-15--14-14--14-15-14-15---14-16-
-14-14--14-15-14-15--14-14--14-15-14-15--14-14--14-15-14-15---14-16-
-14-14--14-15-14-15--14-14--14-15-14-15--14-14--14-15-14-15---14-16-


Verse

Palm Mute Thoughout
---------------------------------------------------------------------
---------------------------------------------------------------------
---------------------------------------------------------------------
-2-2--2-2-2-2--2-2--2-2-2-2--2-2--2-2-2-2--2-2--2-2-2-2--2-2--2-2-2-2
-2-2--2-2-2-2--2-2--2-2-2-2--2-2--2-2-2-2--2-2--2-2-2-2--2-2--2-2-2-2
-2-2--2-2-2-2--2-2--2-2-2-2--2-2--2-2-2-2--2-2--2-2-2-2--2-2--2-2-2-2

------------------------------------
------------------------------------
------------------------------------
-2-2--2-2-2-2--2-2--2-2-2-2-*-0-3---
-2-2--2-2-2-2--2-2--2-2-2-2-*-0-3---
-2-2--2-2-2-2--2-2--2-2-2-2-*-0-3---
*only play this part first time  

Pre Chorus

-----------------------------------------------------------------
-----------------------------------------------------------------
-----------------------------------------------------------------
-9/3-3-3--5--10---9/3-3-3--5--3---9/3-3-3--5--10---9/3--5-5-5-5--
-9/3-3-3--5--10---9/3-3-3--5--3---9/3-3-3--5--10---9/3--5-5-5-5--
-9/3-3-3--5--10---9/3-3-3--5--3---9/3-3-3--5--10---9/3--5-5-5-5--


Chorus 

---------------------------------------------------
---------------------------------------------------
---------------------------------------------------
-10-10-10-10-10--5-5-5--7-5--10-10-10-10--9-9-7-7--
-10-10-10-10-10--5-5-5--7-5--10-10-10-10--7-7-5-5--
-10-10-10-10-10--5-5-5--7-5--10-10-10-10-----------

---------------------------------------------------
---------------------------------------------------
---------------------------------------------------
-10-10-10-10-10--5-5-5--7-5--10-10-10-10--9-9-7-7--
-10-10-10-10-10--5-5-5--7-5--10-10-10-10--7-7-5-5--
-10-10-10-10-10--5-5-5--7-5--10-10-10-10-----------


Fill

-------------------------------------------------------------
-------------------------------------------------------------
-------------------------------------------------------------
-10-10--10-10-10-10--10-10--10-10-10-10--10-10--10-10-10-10--
-10-10--10-10-10-10--10-10--10-10-10-10--10-10--10-10-10-10--
-10-10--10-10-10-10--10-10--10-10-10-10--10-10--10-10-10-10--



Bridge
[ Tab from: http://www.guitartabs.cc/tabs/d/disturbed/prayer_tab_ver_4.html ]
--------------
--------------
-----2--------let ring
-----2--------
-----2--------


---------------------------------------------------------------------
---------------------------------------------------------------------
---------------------------------------------------------------------
---------------------------------------------------------------------
---------------------------------------------------------------------
-4-4-2-4--4-4-2-4--4-4-2-4--4-2-4--4-2-4-5--4-4-2-4--4-4-2-4--4-2-4-2
                                                             
---------------
---------------
---------------
--5-5-5--------
--5-5-5--------
--5-5-5--------
Pm------)

---------------------------------------------------------------------
---------------------------------------------------------------------
---------------------------------------------------------------------
-4-4-2-4--4-4-2-4--4-4-2-4--4-2-4--4-2-4-5--4-4-2-4--4-4-2-4--4-4-2-4
-4-4-2-4--4-4-2-4--4-4-2-4--4-2-4--4-2-4-5--4-4-2-4--4-4-2-4--4-4-2-4
-4-4-2-4--4-4-2-4--4-4-2-4--4-2-4--4-2-4-5--4-4-2-4--4-4-2-4--4-4-2-4
                                                             
---------------
---------------
---------------
--5-5-5--------
--5-5-5--------
--5-5-5--------

---------------------------------------------------------------------
---------------------------------------------------------------------
---------------------------------------------------------------------
-4-4-2-4--4-4-2-4--4-4-2-4--4-2-4--4-2-4-5--4-4-2-4--4-4-2-4--4-4-2-4
-4-4-2-4--4-4-2-4--4-4-2-4--4-2-4--4-2-4-5--4-4-2-4--4-4-2-4--4-4-2-4
-4-4-2-4--4-4-2-4--4-4-2-4--4-2-4--4-2-4-5--4-4-2-4--4-4-2-4--4-4-2-4
                                                             
---------------
---------------
---------------
--5-5-5--------
--5-5-5--------
--5-5-5--------


Outro
Play Chorus twice then

------------------------------------------------------
------------------------------------------------------
------------------------------------------------------
-10xxx10xxx10--5-5-5--7-5---10xxx10xxx10--5-5-5--7-5--
-10xxx10xxx10--5-5-5--7-5---10xxx10xxx10--5-5-5--7-5--
-10xxx10xxx10--5-5-5--7-5---10xxx10xxx10--5-5-5--7-5--

------------------------------------------------------
------------------------------------------------------
------------------------------------------------------
-10xxx10xxx10--5-5-5--7-5---10xxx10xxx10--5-5-5--7-5--
-10xxx10xxx10--5-5-5--7-5---10xxx10xxx10--5-5-5--7-5--
-10xxx10xxx10--5-5-5--7-5---10xxx10xxx10--5-5-5--7-5--

-------------------------------------------------------------
-------------------------------------------------------------
-------------------------------------------------------------
-10-10--10-10-10-10--10-10--10-10-10-10--10-10--10-10-10-10--
-10-10--10-10-10-10--10-10--10-10-10-10--10-10--10-10-10-10--
-10-10--10-10-10-10--10-10--10-10-10-10--10-10--10-10-10-10--


Palm Mute Thoughout
-----------------------------------------------
-----------------------------------------------
-----------------------------------------------
-----------------------------------------------
-2-2--2-3-2-3--2-2--2-3-2-3--2-2--2-3-2-3--2-2-
-2-2--2-3-2-3--2-2--2-3-2-3--2-2--2-3-2-3--2-2-
Comments