Disturbed - Prayer Chords & Tabs

 

Prayer Chords & Tabs

Disturbed Chords & Tabs

Version: 11 Type: Tab 0 ratings
1 star 2 stars 3 stars 4 stars 5 stars
comments

Prayer Tab

   
Song: Prayer
Artist: Disturbed
Tabbed by : Cuthbert NgpTan

Dropped D and tuned down 1/2 step

Verse A (Guitar 1)                     end on
eb-------------------------------------|--------------------|
Bb-------------------------------------|--------------------|
Gb-------------------------------------|------5-------------|
Db-------------------------------------|------5-------------|
Ab--0--0--0h6-0h6--0--0--0h6-0h6-0--0--|--0h6-3-------------|
Db--0--0--0---0----0--0--0---0---0--0--|--0-----------------|

Verse B (Guitar 2)
eb----------------------------------------------------------|
Bb----------------------------------------------------------|
Gb----------------------------5--5--5-5-5--8--8--8-8-8------|
Db--7--7--7-7-7--7--7--7-7-7--------------------------------|
Ab----------------------------------------------------------|
Db----------------------------------------------------------|

Pre-Chorus
eb----------------------------------------------------------|
Bb----------------------------------------------------------|
Gb----------------------------------------------------------|
Db--7\--x-x--1-1--1--1-3-8--7\--x-x--1-1--1--1-3-1----------|
Ab--7\--x-x--1-1--1--1-3-8--7\--x-x--1-1--1--1-3-1----------|
Db--7\--x-x--1-1--1--1-3-8--7\--x-x--1-1--1--1-3-1----------|

(continued)
eb----------------------------------------------------------|
Bb----------------------------------------------------------|
Gb----------------------------------------------------------|
Db--7\--x-x--1-1--1--1-3-8--7\--x-x--3----------------------|
Ab--7\--x-x--1-1--1--1-3-8--7\--x-x--3----------------------|
Db--7\--x-x--1-1--1--1-3-8--7\--x-x--3----------------------|

Chorus
eb----------------------------------------------------------|
Bb----------------------------------------------------------|
Gb--------------------------------5--5-5--7--7-7--5--5-5----|
Db--10--10-10--10--10-10-10--x-x--3--3-3--5--5-5--3--3-3----|
Ab---8---8--8---8---8--8--8--x-x--3--3-3--5--5-5--3--3-3----|
Db---8---8--8---8---8--8--8--x-x--3--3-3--5--5-5--3--3-3----|

(continued)
eb----------------------------------------------------------|
Bb----------------------------------------------------------|
Gb----------------------------------------------------------|
Db--\10--10-10--10--10-10-10---14--12--10---12--------------|
Ab--\-8---8--8---8---8--8--8---12--10---8---10--------------|
Db--\-8---8--8---8---8--8--8---12--10---8---10--------------|
[ Tab from: http://www.guitartabs.cc/tabs/d/disturbed/prayer_tab_ver_11.html ]
Post-Chorus
eb----------------------------------------------------------|
Bb----------------------------------------------------------|
Gb----------------------------------------------------------|
Db--8--8--8-8-8-8--8--8--8-8-8-8--8--8--8-8-8-8-------------|
Ab--8--8--8-8-8-8--8--8--8-8-8-8--8--8--8-8-8-8-------------|
Db--8--8--8-8-8-8--8--8--8-8-8-8--8--8--8-8-8-8-------------|

Bridge 1
eb----------|-----------------------------------------------|
Bb----------|-----------------------------------------------|
Gb----------|-----------------------------------------------|
Db--0---12\-|-----------------------------------------------|
Ab--0---12\-|-----------------------------------------------|
Db--0---12\-|--2-2-0-2--2-2-0-2--2-2-0-2--2--0-2--2--0-2--3-|

(continued)
eb----------------------------------------------------------|
Bb----------------------------------------------------------|
Gb----------------------------------------------------------|
Db---------------------------------------3m---3m---3m-------|
Ab---------------------------------------3m---3m---3m-------|
Db--2-2-0-2--2-2-0-2--2-2-0-2--2-2-0-2---3m---3m---3m-------|

Bridge 2
eb----------------------------------------------------------|
Bb----------------------------------------------------------|
Gb----------------------------------------------------------|
Db--2-2-0-2--2-2-0-2--2-2-0-2---2---0-2---2---0-2---3-------|
Ab--2-2-0-2--2-2-0-2--2-2-0-2---2---0-2---2---0-2---3-------|
Db--2-2-0-2--2-2-0-2--2-2-0-2---2---0-2---2---0-2---3-------|

(continued)
eb----------------------------------------------------------|
Bb----------------------------------------------------------|
Gb----------------------------------------------------------|
Db--2-2-0-2--2-2-0-2--2-2-0-2--2-2-0-2---3---3--3-----------|
Ab--2-2-0-2--2-2-0-2--2-2-0-2--2-2-0-2---3---3--3-----------|
Db--2-2-0-2--2-2-0-2--2-2-0-2--2-2-0-2---3---3--3-----------|

Riff
eb----------------------------------------------------------|
Bb----------------------------------------------------------|
Gb----------------------------------------------------------|
Db--8--8--x-x--8--x-x--8-8---3---3---5--x-x--5--3-----------|
Ab--8--8--x-x--8--x-x--8-8---3---3---5--x-x--5--3-----------|
Db--8--8--x-x--8--x-x--8-8---3---3---5--x-x--5--3-----------|


Verse A, B
Verse A, B (palm muted)
Pre-Chorus
Chorus
Post-Chorus
Verse A, B
Verse A, B (palm muted)
Pre-Chorus
Chorus
Post-Chorus
Bridge 1
Bridge 2
Chorus
Riff
Post-Chorus
Verse A (palm muted)

comments >>> snowblind_cuth@yahoo.ca
Thanks.....
Comments