Disturbed - Prayer Chords & Tabs

 

Prayer Chords & Tabs

Disturbed Chords & Tabs

Version: 2 Type: Bass Tab 0 ratings
1 star 2 stars 3 stars 4 stars 5 stars
comments

Prayer Bass Tab

   
Band: Disturbed
Song: Prayer
Tuning: Drop D or C# (GDAD)or(GDAC#)(High to low)
Tabbed by: blu9999
Email: Blu99999999@netscape.com

This song is played on a 5 string bass.  This tab has been rearranged for a 4 string
bass.  The tuning is drop D, but if you want to make a 4 string sound more like a 5
string, tune the E string down to C#.


Intro:
G|-----------------------|
D|-----------------------|
A|-----------------------|
D|0-0-1-0-1-0-0-0-1-0-1-0|

G|-------------------|
D|-------------------|
A|-------------------|
D|3-3-333-3-6-6-666-5|
Play the intro X4

0:20 (another dream...)
G|--------|
D|--------|
A|--------|  X8
D|0-0-0000|

0:29 (suffering)
G|---|
D|---|
A|---|
D|5-0|

0:30 (another truth...)
G|--------|
D|--------|
A|--------|  X8
D|0-0-0000|

0:38 (deafening)
G|---|
D|---|
A|---|
D|5-0|

0:40
G|-------------------------------|
D|-------------------------------|
A|-------------------------------|
D|7-xx-11-1-1-3-8-7-xx-11-1-1-3-1|

G|--------------------|
D|--------------------|
A|--------------------|
D|7-xx-11-1-1-3-8-7-0~|

0:47 (This is the way I pray...)

G|--------|
D|--------|
A|--------|
D|6-6-6-66|

0:51 (Living just isn't...)

G|----------------------|
D|----------------------|
A|----------------------|
D|0-0-2-2-22-00-6-6-6-66|

0:56 (Burn me alive...)

G|-----------|
D|-----------|
A|-----------|
D|0-9-7-77-95|

0:59

G|--------|
D|--------|
A|--------|
D|6-6-6-66|

1:01 (living my life...)

G|----------------------|
D|----------------------|
A|----------------------|
D|0-0-2-2-22-00-6-6-6-66|

1:06 (Take every thing away)

G|-----------|
D|-----------|
A|-----------|
D|0-9-7-77-95|

1:08

G|--------|
D|--------|
A|--------|  X4
D|6-6-6666|

1:12
G|-----------------------|
D|-----------------------|
A|-----------------------|
D|0-0-1-0-1-0-0-0-1-0-1-0|

G|-------------------|
D|-------------------|
A|-------------------|
D|3-3-333-3-6-6-666-5|
Play this X4

1:22 (another nightmare...)
G|--------|
D|--------|
A|--------|  X8
D|0-0-0000|

1:32 (suffering)
G|---|
D|---|
A|---|
D|5-0|

1:33 (another taste...)
G|--------|
D|--------|
A|--------|  X8
D|0-0-0000|

1:42 (Threatening)
G|-------------------------------|
D|-------------------------------|
A|-------------------------------|
D|7-xx-11-1-1-3-8-7-xx-11-1-1-3-1|

G|--------------------|
D|--------------------|
A|--------------------|
D|7-xx-11-1-1-3-8-7-0~|

1:50 (This is the way I pray...)

G|--------|
D|--------|
A|--------|
D|6-6-6-66|

1:54 (Living just isn't...)

G|----------------------|
D|----------------------|
A|----------------------|
D|0-0-2-2-22-00-6-6-6-66|

1:59 (Burn me alive...)

G|-----------|
D|-----------|
A|-----------|
D|0-9-7-77-95|

2:02

G|--------|
D|--------|
A|--------|
D|6-6-6-66|

2:04 (living my life...)
[ Tab from: http://www.guitartabs.cc/tabs/d/disturbed/prayer_btab_ver_2.html ]
G|----------------------|
D|----------------------|
A|----------------------|
D|0-0-2-2-22-00-6-6-6-66|

2:09 (Take every thing away)

G|-----------|
D|-----------|
A|-----------|
D|0-9-7-77-95|

2:11

G|--------|
D|--------|
A|--------|  X4
D|6-6-6666|

2:16          2:20
G|----------------|
D|----------------|
A|----------------|
D|0~~~~~~~~~~~12/1|

Rest

2:30 (Return to me)
G|-------------------------------------------|
D|-------------------------------------------|
A|-------------------------------------------|
D|2-2-0-2--2-2-0-2--2-2-0-2--2-0-2-2--2-0-2-3|

2:39 (Cast aside)
G|-----|
D|-----|
A|-----|
D|3-3-3|

2:40 (Return to me)
G|-------------------------------------------|
D|-------------------------------------------|
A|-------------------------------------------|
D|2-2-0-2--2-2-0-2--2-2-0-2--2-0-2-2--2-0-2-3|

2:49 (You've made me turn away...)
G|-----|
D|-----|
A|-----|
D|3-3-3|

2:50

G|--------|
D|--------|
A|--------|
D|6-6-6-66|

2:52 (Living just isn't...)

G|----------------------|
D|----------------------|
A|----------------------|
D|0-0-2-2-22-00-6-6-6-66|

2:57 (Burn me alive...)

G|-----------|
D|-----------|
A|-----------|
D|0-9-7-77-95|

3:00

G|--------|
D|--------|
A|--------|
D|6-6-6-66|

3:02 (living my life...)

G|----------------------|
D|----------------------|
A|----------------------|
D|0-0-2-2-22-00-6-6-6-66|

3:06 (Take every thing from you)

G|-----------|
D|-----------|
A|-----------|
D|0-9-7-77-95|

3:09

G|--------|
D|--------|
A|--------|  X4
D|7xx7xx77|

3:12 (Living just isn't...)

G|----------------------|
D|----------------------|
A|----------------------|
D|0-0-2-2-22-00-6-6-6-66|

3:15 (Burn me alive...)

G|----------------------|
D|----------------------|
A|----------------------|
D|0-0-2-2-22-00-6-6-6-66|

3:21 (Living my life...)

G|----------------------|
D|----------------------|
A|----------------------|
D|0-0-2-2-22-00-6-6-6-66|

3:28 (Take everything away...)

G|--------|
D|--------|
A|--------| X4
D|6-6-6-66|

Thats all.

Lyrics:
Another dream that will never come true 
Just to compliment your sorrow 
Another life that I've taken from you 
A gift to add on to your pain and suffering 
Another truth you can never believe 
Has crippled you completely 
All the cries you're beginning to hear 
Trapped in your mind, and the sound is deafening 

Let me enlighten you 
This is the way I pray 

[Chorus]
Living just isn't hard enough 
Burn me alive, inside 
Living my life's not hard enough 
Take everything away 

Another nightmare about to come true 
Will manifest tomorrow 
Another love that I've taken from you 
Lost in time, on the edge of suffering 
Another taste of the evil I breed 
Will level you completely 
Bring to life everything that you fear 
Live in the dark, and the world is threatening 

Let me enlighten you 
This is the way i pray 

[chorus]

Return to me 
Leave me no one 
Turn to me 
Return to me 
Cast aside 

You've made me turn away 

[chorus]
Comments