Disturbed - Pain Redefined Chords & Tabs

 

Pain Redefined Chords & Tabs

Disturbed Chords & Tabs

Version: 2 Type: Tab 0 ratings
1 star 2 stars 3 stars 4 stars 5 stars
comments

Pain Redefined Tab

Band- Disturbed
Song- Pain Redefined
Album- Ten Thousand Fists
Tuning- Drop C

I decided to tab this because the other version(ver.1) isn't really all that
accurate.This is a more accurate but not perfect needs some fixing in a few
spots.Sounds good to me.ENJOY!

Intro/With Delay
|------------------------------|
|------------------------------|
|------------------------------|
|------------------------------|
|-------8---8------------6---6-|Repeat a couple of times
|-5-5-5------------5-5-5-------|
P.M....            .....

|-------------------------------------------------|
|-------------------------------------------------|
|-------------------------------------------------|
|-------------------------------------------------|
|-------8-------6-------------5-5-5-5-6-5-5-5-6-8-|
|-5-5-5---5-5-5---5-5-8-5-5-9-5-5-5-5-6-5-5-5-6-8-|
P.M....   .....   ...   ...   .......   .....

Verse/All Palm Muted
|----------------------------------------------------------|
|----------------------------------------------------------|
|----------------------------------------------------------|
|----------------------------------------------------------|
|-10-10-10--10-10-10-10-10-10-10--10-10--10-10-10-10-10-10-|(Sounds like he's
|-10-10-10--10-10-10-10-10-10-10--10-10--10-10-10-10-10-10-|going lower but 
                                                             he's really not)
|----------------------------------------------|
|----------------------------------------------|
|----------------------------------------------|
|----------------------------------------------|
|-6-6--6-6-6-6-6-6-6--9-9--9-9-9-9-9-9-9--9-12-|
|-6-6--6-6-6-6-6-6-6--9-9--9-9-9-9-9-9-9--9-12-|

Pre-Chorus
|----------------------------------------------------------------|
|----------------------------------------------------------------|
|----------------------------------------------------------------|
|----------------------------------------------------------------|
|-8-5-5--5-5-8-5-5-5-10\-5-5-5--5-5-8-5-5-5-12\-5-5--5-5-8-5-5-5-|
|-8-5-5--5-5-8-5-5-5-10\-5-5-5--5-5-8-5-5-5-12\-5-5--5-5-8-5-5-5-|

|---------------|
|---------------|
|---------------|
|---------------|
|-3-3-3-3-3-/12-|
|-3-3-3-3-3-/12-|
[ Tab from: http://www.guitartabs.cc/tabs/d/disturbed/pain_redefined_tab_ver_2.html ]
Chorus
|--------------------------------------------------|
|--------------------------------------------------|
|-------12-----6-------12-----9-9-9-------12-----6-|
|-12-10-x--6-5-x-12-10-x--6-5-x-x-x-12-10-x--6-5-x-|
|-10-8--10-4-3-4-10-8--10-4-3-7-7-7-10-8--10-4-3-4-|
|-12-10----6-5---12-10----6-5-------12-10----6-5---|

|-----------------------------------------------|
|-----------------------------------------------|
|-----------------------------------------------|
|-----------------------------------------------|
|-10-10-10-10--10-10-8-8--10-x-8-x-10-x-8-10-12-|
|-10-10-10-10--10-10-8-8--10-x-8-x-10-x-8-10-12-|

Play Intro

Play Verse

Play Pre-Chorus

Play Chorus

Bridge/Light Distortion
|----------------------------------------------|
|---------0--------0--------0------0-----0-----|
|----------------------------------------------|
|----------------------------------------------|
|-8~---8-------10-------11------5------7-----8-|
|-8~-8------10-------11-------5------7-----8---|

|---------------------------------------|
|-----0-------0-------0-----0-----0-----|
|---------------------------------------|
|-------------------------7-----6-----5-|
|---8------10------11---7-----6-----5---|
|-8-----10------11----------------------|

|--------------------------------------------------------------------|
|-----0-------0-------0-----0-----0-----0----------------------------|
|--------------------------------------------------------------------|
|-----------------------------------------------12-------12-------14-|
|---8------10------11-----5-----7-----8------10-------10-------12----|
|-8-----10------11------5-----7-----8-----10-------10-------12-------|

Heavy Bridge
|-------------------------|
|-------------------------|
|-------------------------|
|-------------------------|
|-8-6-9-6-8-6-9-6-8-8-6-9-|
|-8-6-9-6-8-6-9-6-8-8-6-9-|

|------------------------------------|
|------------------------------------|
|------------------------------------|
|------------------------------------|
|-8-6--6-6-8-6--6-6-8-7*-7*-7*-7*-7*-|
|-8-6--6-6-8-6--6-6-8-7*-7*-7*-7*-7*-|
P.M..  ...   .  ...

Play Chorus

Play Intro until end

Ending(After played intro twice)
|-------------|
|-------------|
|-------------|
|-------------|
|-5-5-5-5-5-5-|
|-5-5-5-5-5-5-|
P.M..........

Look for a ten thousand fists album tab soon just gotta figure out sacred lie and then
I'll post the album tab.
Comments