Disturbed - Overburdened Chords & Tabs

 

Overburdened Chords & Tabs

Disturbed Chords & Tabs

Version: 4 Type: Tab

Overburdened Tab

----Overburdened + Disturbed-----

-Tuning is: Drop C (All strings 1 step down, bass string an extra step on top of that)

------C G C F A D (low to high)------


Tabbed By: Jay Logan
Email: Subbliminal@DONTSPAM@hotmail.com 
           -Just remove the 'DONTSPAM of course.

Legend - I suggest looking over it, there are some descriptions, as well as special cases.

 /  - Slide Right (If only 1 number just slide from anywhere towards it left to right)
 \  - Slide left (If only 1 number just slide from anywhere towards it right to left)
 ^  - Bend (5^7= bend the 5 fret until it sounds like 7, or 5^ = quick bend)
(~) - Vibrato (5(~) = Wiggle the string shown)
(5) - Natural Harmonic (Just put your finger lightly over the actually fret)
<5> - Artificial Harmonic (You pick the string and let your thumb touch as well while
holding the fret shown)
 x  - Mute that string
 .  - Palm Mute (Mute the note shown with picking hand palm, the '.' is under the note)
 h  - Hammer On (ie..3h5 = pic the 3rd fret and then hammer your finger into the 5th without picking)
 p  - Pull Off (opposite of hammer on, 5p3 = pic the 5th while holding the 3rd as well,
then pull your finger of the 5th)


NOTE: While I do prefer to tab out whole songs, I think i'll just send this out first so
people can do it for now.
NOTE: The Part in the middle of the solo is harmonized, ie, these parts play at the same
time.
NOTE: Dan does overdubs.

SO..for space purposes

G1= Guitar 1 (Lead)
G2= Guitar 2 (Harmonizing)
G3= Guitar 3 (Rythm)

{  Means play at same time.
{

---Solo---

w/ Wah-Wah Pedal and Distortion

D|----------------------------------------------------------------------------------------|
A|-----13^15^13--10~---13--15^17^15--10~-----------------13^15^13--10---------------------|
F|-------------------------------------------10-12-10~------------------12^14^p10-12~-----|G1
C|----------------------------------------12------------------------------------------12--|
G|----------------------------------------------------------------------------------------|
C|----------------------------------------------------------------------------------------|
 {                                                                                        }
 {                                                                                        }
D|----------------------------------------------------------------------------------------|
A|----------------------------------------------------------------------------------------|
F|----------------------------------------------------------------------------------------|G3
C|-x-x-12------------------10----------------8-----12----------------------10-----8-------|
G|-x-x-12------------------10----------------8-----12----------------------10-----8-------|
C|-x-x-12------------------10----------------8-----12----------------------10-----8-------|





D|----------------------------------------------------------------------------------------|
A|----------------------------------------------------------------------------------------|
F|-9h10p9------9~---------9h10p9------9~---------9h10p9------9~---------9h10p9------9~----|G1
C|---------12---------------------12---------------------12---------------------12--------|
G|----------------------------------------------------------------------------------------|
C|----------------------------------------------------------------------------------------|
 {                                                                                        }
 {                                                                                        }
D|----------------------------------------------------------------------------------------|
A|----------------------------------------------------------------------------------------|
F|----------------------------------------------------------------------------------------|G3
C|-x----x------12--------------------------------------------10---------------------------|
G|-x----x------12--------------------------------------------10---------------------------|
C|-x----x------12--------------------------------------------10---------------------------|




[ Tab from: http://www.guitartabs.cc/tabs/d/disturbed/overburdened_tab_ver_4.html ]
D|----------------------------------------------------------------------------------------|
A|---------10h11h12p11p10-----------------------------------------------------------------|
F|-9h10h12----------------12p10p9--------------------------------9--/<9>------------------|G1
C|-------------------------------10--10/12~---10----10-12-10-12------------10------10~----|
G|-----------------------------------------------12----------------------------12---------|
C|----------------------------------------------------------------------------------------|
 {                                                                                        }
 {                                                                                        }
D|----------------------------------------------------------------------------------------|
A|----------------------------------------------------------------------------------------|
F|----------------------------------------------------------------------------------------|G3
C|--------------8-----------------------8------------------------7------------------------|
G|--------------8-----------------------8------------------------7------------------------|
C|--------------8-----------------------8------------------------7------------------------|



---Harmonized Part---

D|--13----12-------------13--12------------13----12---------|
A|-----10----10--13--10---------10--13--10----10----10--13--|
F|----------------------------------------------------------|Guitar 1
C|----------------------------------------------------------|
G|----------------------------------------------------------|
C|----------------------------------------------------------|
 {                                                          }
 {                                                          }
D|--10----8--------------10--8-------------10----8----------|
A|-----6-----6---10---6---------6---10---6----6-----6---10--|
F|----------------------------------------------------------|Guitar 2
C|----------------------------------------------------------|
G|----------------------------------------------------------|
C|----------------------------------------------------------|
 {                                                          }
 {                                                          }
D|----------------------------------------------------------|
A|----------------------------------------------------------|
F|----------------------------------------------------------|Guitar 3
C|--x--x--12--------------------10------------------8-------|
G|--x--x--12--------------------10------------------8-------|
C|--x--x--12--------------------10------------------8-------|





D|-------------------------------------------10-------------|
A|-----10--13--10------13----10--13--10------------13----10-|
F|--12-------------12-----12--------------12----12----12----|Guitar 1
C|----------------------------------------------------------|
G|----------------------------------------------------------|
C|----------------------------------------------------------|
 {                                                          }
 {                                                          }
D|--------------------------------------------6-------------|
A|-----6---10---6------10----6---10---6------------10-----6-|
F|--9---------------9------9---------------9-----9-----9----|Guitar 2
C|----------------------------------------------------------|
G|----------------------------------------------------------|
C|----------------------------------------------------------|
 {                                                          }
 {                                                          }
D|----------------------------------------------------------|
A|----------------------------------------------------------|
F|----------------------------------------------------------|Guitar 3
C|--12---------------------------10--------------8----------|
G|--12---------------------------10--------------8----------|
C|--12---------------------------10--------------8----------|





D|--------------------------------------------12-13--12-----------------|
A|------13^15~---13^15^13~---13^15\10~---/15------------15-13----13-15--|
F|------------------------------------------------------------14--------|
C|----------------------------------------------------------------------|Guitar 1
G|----------------------------------------------------------------------|
C|----------------------------------------------------------------------|
 {                                                                      }
 {                                                                      }
D|----------------------------------------------------------------------|
A|----------------------------------------------------------------------|
F|----------------------------------------------------------------------|Guitar 3
C|--x-x-12----------10--------------------8------8---------------10-----|
G|--x-x-12----------10--------------------8------8---------------10-----|
C|--x-x-12----------10--------------------8------8---------------10-----|





D|----------------------------------------------------------------------|
A|--15p13----17p13----15p13----15p13-----15^17^15~----------------------|
F|--------14-------14-------14-------14---------------------------------|
C|----------------------------------------------------------------------|
G|----------------------------------------------------------------------|
C|----------------------------------------------------------------------|
 {                                                                      }
 {                                                                      }
D|----------------------------------------------------------------------|
A|----------------------------------------------------------------------|
F|----------------------------------------------------------------------|Guitar 3
C|--------------------------------------------x-x-12---10--8------------|
G|--------------------------------------------x-x-12---10--8------------|
C|--------------------------------------------x-x-12---10--8------------|
                                             
                                              |Chorus Starts Again|