Disturbed - Overburdened Chords & Tabs

 

Overburdened Chords & Tabs

Disturbed Chords & Tabs

Version: 3 Type: Tab 0 ratings
1 star 2 stars 3 stars 4 stars 5 stars
comments

Overburdened Tab

Band- Disturbed
Song- Overburdened
Album- Tem Thousand Fists
Tuning- Drop C

|----------------------------------------------|
|----------------------------------------------|
|----------------------------------------------|
|-0~~~~~~-------0-0------0~~~~~----9----6------|
|-0~~~~~~-------0-0------0~~~~~----9----6------|
|-0~~~~~~-------0-0------0~~~~~----9----6--12/-|
P.M.            ...
Intro bass,  you can also do this on guitar
|-10------10--10----10-14------12------10----|
|----12----------12-------12------12------12-|
|-------0--------------------0-------0-------|
|--------------------------------------------|
|--------------------------------------------|

|-9------9--9---------------------------|
|---10--------10---9------9------9------|
|------0---------0---10-----10-----10---|
|-----------------------0------0------0-|
|---------------------------------------|

|--9~~~~~~~~~~~~~~-|
|-10~~~~~~~~~~~~~~-|
|--0~~~~~~~~~~~~~~-|
|------------------|
|------------------|

Verse
|-------------------------------------------------------------|
|---14---12---15---15---17---15-----14---12---10---10---9---9-|
|-0----0----0----0----0----0----0-0----0----0----0----0---0---|
|-------------------------------------------------------------|
|-------------------------------------------------------------|

|-------------------------------------------------------|
|---14---12---15---15---17---15-------------------------|
|-0----0----0----0----0----0----------------------------|
|-------------------------------9-9-9-9-9-9-6-6-6-6-6-6-|
|-------------------------------------------------------|


Verse
|--------------------------------------------------|
|--------------------------------------------------|
|--------------------------------------------------|
|-0--0-0--0--0-0-0--0-3-5--0--0-0--0--0-0-0--5-5-0-|
|-0--0-0--0--0-0-0--0-3-5--0--0-0--0--0-0-0--5-5-0-|
|-0--0-0--0--0-0-0--0-3-5--0--0-0--0--0-0-0--5-5-0-|
P.M. ...  .  .....  .....     ...  .  .....  ...

|------------------------------|
|------------------------------|
|------------------------------|
|-0-0--0--0-0-0--0-3-5--9----6-|
|-0-0--0--0-0-0--0-3-5--9----6-|
|-0-0--0--0-0-0--0-3-5--9----6-|
P.M..  .  .....  .....

Pre-Chorus-with wah pedal
|------------------------------|
|------------------------------|
|------------------------------|
|------------------------------|
|-7-10-7-9-7-5-7--7-10-7-9-7-5-|
|------------------------------|

Chorus
|------------------------------------------|
|------------------------------------------|
|------------------------------------------|
|-0-0-6--0--3-3--0-3-5--0-0-6--0--3--5-5-3-|
|-0-0-6--0--3-3--0-3-5--0-0-6--0--3--5-5-3-|
|-0-0-6--0--3-3--0-3-5--0-0-6--0--3--5-5-3-|
P.M..                   ...
[ Tab from: http://www.guitartabs.cc/tabs/d/disturbed/overburdened_tab_ver_3.html ]
|---------------------------------------------|
|---------------------------------------------|
|---------------------------------------------|
|-0-0-6--0--3-3--0-3-5-6-6-6--8-6-9-9-9-9-9-9-|
|-0-0-6--0--3-3--0-3-5-6-6-6------9-9-9-9-9-9-|
|-0-0-6--0--3-3--0-3-5-6-6-6------9-9-9-9-9-9-|
P.M..                               .....

Fill
|--------------------------|--------|
|------------x2------------|--------|
|--------------------------|--------|
|-0--0-0--0--0-0-0--0-0--0-|-9----6-|
|-0--0-0--0--0-0-0--0-0--0-|-9----6-|
|-0--0-0--0--0-0-0--0-0--0-|-9----6-|
P.M  ...  .  .....  ...

Verse 2
|-------------------------------------------------|
|-------------------------------------------------|
|-------------------------------------------------|
|-0--0-0--0--0-0-0--0-3-5-0--0-0--0--0-0-0--5-5-3-|
|-0--0-0--0--0-0-0--0-3-5-0--0-0--0--0-0-0--5-5-3-|
|-0-----------------------0-----------------------|

|--------------------------------------------------|
|--------------------------------------------------|
|--------------------------------------------------|
|-0--0-0--0--0-0-0--0-3-5--9-9-9-9-9-9-6-6-6-6-6-6-|
|-0--0-0--0--0-0-0--0-3-5--9-9-9-9-9-9-6-6-6-6-6-6-|
|-0------------------------9-9-9-9-9-9-6-6-6-6-6-6-|


Solo
|--------------------------------------------|
|-10^----10-12^-10----------10^--------------|
|-----11-----------9-9-11-9-----11-11-11/7\9-|
|--------------------------------------------|
|--------------------------------------------|
|--------------------------------------------|

|--------------------------------------------------------|
|--------------------------------------------------------|
|-9-9-10p9p7h9-10p9p7h9-10p9p7h9-------------10h12p10----|
|--------------------------------------10h12----------12-|
|--------------------------------10h12-------------------|
|--------------------------------------------------------|

|-----------------------------|
|-----------------------------|
|-----------------------------|
|-------10-12-12-12^-12p10-12-|
|-10h12-----------------------|
|-----------------------------|

|----------------------------------------------|
|----------------------------------------------|
|---19---17---15---17---15---14---15---14---12-|
|-0----0----0----0----0----0----0----0----0----|
|----------------------------------------------|
|----------------------------------------------|

|------------------------------------------------|
|------------------------------------------------|
|------------------------------------------------|
|-14-15-17-14-15-17-14-15-18-14-15-17-14-15-14*^-|
|------------------------------------------------|
|------------------------------------------------|

|------------------------------------------------|
|-13^-13-12-12-------13-15-15^-15-13----13-15-17-|
|--------------12-12-----------------14----------|
|------------------------------------------------|
|------------------------------------------------|
|------------------------------------------------|

|-15p13p12-17p13p12-15p13p12-17p13p12-15p13p12-17p13p12-18^-|
|-----------------------------------------------------------|
|-----------------------------------------------------------|
|-----------------------------------------------------------|
|-----------------------------------------------------------|
|-----------------------------------------------------------|
Comments