Disturbed - Overburdened Chords & Tabs

 

Overburdened Chords & Tabs

Disturbed Chords & Tabs

Version: 2 Type: Tab 0 ratings
1 star 2 stars 3 stars 4 stars 5 stars
comments

Overburdened Tab

Band- Disturbed
Song- Overburdened
Album- Ten Thousand Fists
Tuning- Drop C

Alright, I'm gonna post the solo seperate from my tab for this song because I want to
get it perfect.This may not be perfect but please leave comments about this tab.I'll
edit it in when I think it's right.

Solo
|--------------------------------------------|
|-10^----10-12^-10----------10^--------------|
|-----11-----------9-9-11-9-----11-11-11/7\9-|
|--------------------------------------------|
|--------------------------------------------|
|--------------------------------------------|

|--------------------------------------------------------|
|--------------------------------------------------------|
|-9-9-10p9p7h9-10p9p7h9-10p9p7h9-------------10h12p10----|
|--------------------------------------10h12----------12-|
|--------------------------------10h12-------------------|
|--------------------------------------------------------|

|-----------------------------|
|-----------------------------|
|-----------------------------|
|-------10-12-12-12^-12p10-12-|
|-10h12-----------------------|
|-----------------------------|
[ Tab from: http://www.guitartabs.cc/tabs/d/disturbed/overburdened_tab_ver_2.html ]
|----------------------------------------------|
|----------------------------------------------|
|---24---22---20---22---20---19---20---19---17-|
|-0----0----0----0----0----0----0----0----0----|
|----------------------------------------------|
|----------------------------------------------|

|------------------------------------------------|
|------------------------------------------------|
|------------------------------------------------|
|-14-15-17-14-15-17-14-15-18-14-15-17-14-15-14*^-|
|------------------------------------------------|
|------------------------------------------------|

|------------------------------------------------|
|-13^-13-12-12-------13-15-15^-15-13-------13-15-|
|--------------12-12-----------------12-12-------|
|------------------------------------------------|
|------------------------------------------------|
|------------------------------------------------|

|-15p13p12-17p13p12-15p13p12-17p13p12-15p13p12-17p13p12-18^-|
|-----------------------------------------------------------|
|-----------------------------------------------------------|
|-----------------------------------------------------------|
|-----------------------------------------------------------|
|-----------------------------------------------------------|

Please give any corrections.It's about 80% correct.

*-pinched Harmonic
^-bend
h-hammeron
p-pulloff

Enjoy!
Comments