Disturbed - Overburdened Chords & Tabs

 

Overburdened Chords & Tabs

Disturbed Chords & Tabs

Version: 1 Type: Bass Tab 0 ratings
1 star 2 stars 3 stars 4 stars 5 stars
comments

Overburdened Bass Tab

Band- Disturbed
Song- Overburdened
Album- Tem Thousand Fists
Tuning- Drop C

Alright here's the cool bass intro everybody wants.It may need a few fixes but it's
sounds good to me.It's a lot like the Metallica My Friend Of Misery bass.

Intro
|-10------10--10----10-14------12------10----|
|----12----------12-------12------12------12-|
|-------0--------------------0-------0-------|
|--------------------------------------------|
|--------------------------------------------|

|-9------9--9---------------------------|
|---10--------10---9------9------9------|
|------0---------0---10-----10-----10---|
|-----------------------0------0------0-|
|---------------------------------------|

|--9~~~~~~~~~~~~~~-|
|-10~~~~~~~~~~~~~~-|
|--0~~~~~~~~~~~~~~-|
|------------------|
|------------------|

Verse
|-------------------------------------------------------------|
|---14---12---15---15---17---15-----14---12---10---10---9---9-|
|-0----0----0----0----0----0----0-0----0----0----0----0---0---|
|-------------------------------------------------------------|
|-------------------------------------------------------------|

|-------------------------------------------------------|
|---14---12---15---15---17---15-------------------------|
|-0----0----0----0----0----0----------------------------|
|-------------------------------9-9-9-9-9-9-6-6-6-6-6-6-|
|-------------------------------------------------------|
[ Tab from: http://www.guitartabs.cc/tabs/d/disturbed/overburdened_btab.html ]
Pre-Chorus
|------------------------------------------------------|
|------------------------------------------------------|
|------------------------------------------------------|
|-8-8-8-8-8-8--8-8-8-8-8-8--5-5-5-5-5-5-5--5-5-5-5-5-5-|x2
|------------------------------------------------------|

|-----------|
|-----------|
|-----------|
|-0-0-3-0-2-|
|-----------|

Chorus
|--------------------------------|
|--------------------------------|
|--------------------------------|
|-0-0-6-0-3-3-0-3-5--6-0-3-5-5-3-|
|--------------------------------|

|---------------------------------------------|
|---------------------------------------------|
|---------------------------------------------|
|-0-0-6-0-3-3-0-3-5-6-6-6-6-6-6-9-9-9-9-3-3-3-|
|---------------------------------------------|

Play Verse

Play Pre-Chorus

Play Chorus

Build up
|-------------------------|
|-------------------------|
|-------------------------|
|-0-0-0-0-0-0-0-0-0-0-0-0-|
|-------------------------|


Bridge
|------------------------------------------------|
|------------------------------------------------|
|--------------------------------------7-7-7-7-7-|
|-7-7-7-7-7-9-9-9-10-10-10-0-3-3-3-3-3-----------|
|------------------------------------------------|

|-----------------------------------------|
|-----------------------------------------|
|-----------------------------------------|
|-5-7-7-7-7-5-5-5-5-5-7-7-7-7-7-5-5-5-5-5-|
|-----------------------------------------|

Play Chorus

Ending
|---16---14---17---17---19---17---16---14---12---12---11---11----|
|---14---12---15---15---17---15---14---12---10---10---9----9-----|
|-0----0----0----0----0----0----0----0----0----0----0----0----0~-|
|----------------------------------------------------------------|
|----------------------------------------------------------------|

It's probably not perfect so leave some comments!

Comments