Disturbed - Numb Chords & Tabs

 

Numb Chords & Tabs

Disturbed Chords & Tabs

Version: 3 Type: Tab 0 ratings
1 star 2 stars 3 stars 4 stars 5 stars
comments

Numb Tab

   
This song is pretty cool.

tabbed by: sflainpaktnioct
Tuning: Drop D Flat (Db Ab Db Gb Bb Eb)

Intro
|------------------------|
|--------------------3-3-|
|--------------------2-2-|
|-0-3-3-3-3-3-0--0-0-0-0-|
|-0-3-3-3-3-3-0--0-0-0-0-|
|-0-3-3-3-3-3-0--0-0-0-0-|x8

Verse
|--------------|
|--------------|
|--------------|
|---------3-0~-|
|---------3-0~-|
|-0-3-3-3-3-0~-|x2
  PM-----|

Fill
|---|
|---|
|---|
|-0-|
|-0-|
|-0-|

Chorus
|--------|---------------------|
|--------|---------------------|
|--------|---------------------|
|--------|---------------------|
|-5b-3-0-|-6-0-----3-0---------|
|-5b-3-0-|-6-0-0-0-3-0--5b-3-0-|x3
     PM-|      PM-|        PM-|

|------------------|
|------------------|
|------------------|
|------------------|
|-6-0-----3-0--0-0-|
|-6-0-0-0-3-0--0-0-|
      PM-|

Interlude
|-------------------------------|
|-------------------------------|
|-------------------------------|
|-------------------------------|
|-2-2-2--X-2-2-2-3-3-3--X-5-5-5-|
|-2-2-2--X-2-2-2-2-2-2--X-2-2-2-|x4

Repeat Verse the same except without the fill.
Play the Chorus and interlude the same
[ Tab from: http://www.guitartabs.cc/tabs/d/disturbed/numb_tab_ver_3.html ]
Bridge(w/ wah)
|--------------------|
|--------------------|
|--------------------|
|--------------------|
|------0-1-0---------|
|-0--0---------3-X-1-|x4
Then play the interlude 2 times
Repeat the bridge twice.
Then play this:
|----------------------------------------------|
|----------------------------------------------|
|----------------------------------------------|
|----------------------------------------------|
|-2---2---2---2-3---3---2---2---2---2-3---3--3-|
|---2-------2-----2-------2-------2-----2----3-|

|-------------------------------------------|
|-------------------------------------------|
|-------------------------------------------|
|-------------------------------------------|
|-2---2---2---2-3---3---2---2---2---2-3---3-|
|---2-------2-----2-------2-------2-----2---|

Last Chorus
|--------|---------------------|
|--------|---------------------|
|--------|---------------------|
|--------|---------------------|
|-5b-3-0-|-6-0-----3-0---------|
|-5b-3-0-|-6-0-0-0-3-0--5b-3-0-|x3
     PM-|      PM-|        PM-|

|----------------------------|
|----------------------------|
|----------------------------|
|----------------------------|
|----------------------------|
|-3b-0-3b-0-3b-0-3b-0-3b-0-0-|
                         PM-|

|---------------------|
|---------------------|
|---------------------|
|---------------------|
|-6-0-----3-0---------|
|-6-0-0-0-3-0--5b-3-0-|x3
      PM-|        PM-|

Outro
|---------------------------------|
|---------------------------------|
|---------------------------------|
|---------------------------------|
|---------------------------------|
|-5-3-0-5-3-0-5-3-0-5-3-0-5-3-5-3-|x4
Then play this 3 times palm muted

|-----------------------------------|
|-----------------------------------|
|-----------------------------------|
|-5-3-0-5-3-0-5-3-0-5-3-0-5-3-5-3-0-|
|-5-3-0-5-3-0-5-3-0-5-3-0-5-3-5-3-0-|
|-5-3-0-5-3-0-5-3-0-5-3-0-5-3-5-3-0-|

that should be about it.

Any questions just email me at sflainpaktnioct@yahoo.com
Comments