Disturbed - Numb Chords & Tabs

 

Numb Chords & Tabs

Disturbed Chords & Tabs

Version: 1 Type: Tab 1 rating
1 star 2 stars 3 stars 4 stars 5 stars
comments

Numb Tab

   
disturbed- numb tuning Db Ab Db Gb Bb eb
ryan  u_freak66@hotmail.com email me


intro
|-----------------------------------|x8 but on the last time dont play the parts in [ ]
|-----------------------------[3--3]|
|-----------------------------[2--2]|
|0--3--3--3---3-----0--0--0---[0--0]|
|0--3--3--3---3-----0--0--0---[0--0]|listen carefully this part is hard to get with out 
|0--3--3--3---3-----0--0--0---[0--0]|listening to the song


verse

|-----------------|       |---------------------------|
|-----------------|       |---------------------------|
|-----------------|       |---------------------------|
|----------------0|       |0--------------------------|
|-------------3--0|x2 then|0----------{5}bend-----3--0|
|-0--3--3--3--3--0|       |0----------{5}1/2 step-3--0|
pm   .  .  .              pm                         .

pre-chorus
|--------------------------|
|--------------------------|
|--------------------------|x 3
|--------------------------|
|-6--0------3----0---------|
|-6--0--0-0-3----0--{5}-3-0|
pm      . .               .
|--------------------------|
|--------------------------|
|--------------------------|
|--------------------------|
|-6--0------3----0----3----|
|-6--0--0-0-3----0----3----|
pm      . .      
|---------------------------------------------------------------------|           |-------|
|---------------------------------------------------------------------|           |-------|
|---------------------------------------------------------------------|x 2 but the|-------|
|---------------------------------------------------------------------|last time  |-------|
|-2-2-2----x-2-2-2-3-3-3---x-5-5-5-2-2-2------x-2-2-2-3-3-3---x-5[5-5]|replace [] |-------|
|-2-2-2----x-2-2-2-2-2-2---x-2-2-2-2-2-2------x-2-2-2-2-2-2---x-2[2-2]|with this  |-10\sld|
[ Tab from: http://www.guitartabs.cc/tabs/d/disturbed/numb_tab.html ]
bridge w/wah 
|-------------------------|x2
|-------------------------|
|-------------------------|
|-------------------------|
|-----------0-1-0---------|
|--0-----0-----------3-x-1|
                            
chorus
|-------------------------------------------------|
|-------------------------------------------------|
|-------------------------------------------------|
|-------------------------------------------------|
|-2---2----2---2-3---3------2---2---2---2-3---3--3|
|---2--------2-----2----------2-------2-----2----3|

|-------------------------------------------------------|
|-------------------------------------------------------|
|-------------------------------------------------------|
|-------------------------------------------------------|
|-2---2----2---2-3---3------2---2---2---2-3---3-{5}--3-0|
|---2--------2-----2----------2-------2-----2---{5}--3-0|
pm                                                     .

outro
|---------------------------------------|
|---------------------------------------|
|---------------------------------------|
|---------------------------------------|
|---------------------------------------|x3
|-5--3-0-5-3-0-5---3---0-5-3-0-5-3-5-3--|

|-------------------------------------------------|
|-------------------------------------------------|
|-------------------------------------------------|
|-------------------------------------------------|
|-------------------------------------------------|
|-5--3--0--5--3--0--5---3---0--5--3--0--5--3--5--3|

|-----------------------------------------------------------------------------------------------|
|-----------------------------------------------------------------------------------------------|
|-----------------------------------------------------------------------------------------------|
|-----------------------------------------------------------------------------------------------|
|-----------------------------------------------------------------------------------------------|
|5-3-0-5-3-0-5-3-0-5-3-0-5-3-5-3-5-3-0-5-3-0-5-3-0-5-3-0-5-3-5-3-5-3-0-5-3-0-5-3-0-5-3-0-5-3-5-3|
pm . . . . . . . . . . . . . . . . . . . . . . . . . . . . . . . . . . . . . . . . . . . . . . .

|--------------------------------------------------|
|--------------------------------------------------|
|--------------------------------------------------|
|--------------------------------------------------|
|-5--3--0--5--3--0--5--3--0--5--3--0--5--3--5--3--0|
|-5--3--0--5--3--0--5--3--0--5--3--0--5--3--5--3--0|
  
Comments