Disturbed - Mistress Chords & Tabs

 

Mistress Chords & Tabs

Disturbed Chords & Tabs

Version: 4 Type: Tab 0 ratings
1 star 2 stars 3 stars 4 stars 5 stars
comments

Mistress Tab

   
Tabbed by: believeR

Artist: Disturbed
Song:   Mistress (Corrected Version)
Tuning: Db Ab Db Gb Bb Eb

(listen to the CD for exact timing)

First of all, I wanna say that Disturbed is one of the
greatest bands that metal has ever birthed! 

(this is a revised version.I've put in some fill-ins i missed last tab...SORRY!)

[Intro]
|----------------------------|------------------------------|
|----------------------------|------------------------------|
|----------------------------|------------------------------|
|-2-2--9-9-9-9-5-5-5-7-7-5-5-|-2-2--9-9-9-9-5-5-5-7-7-10-10-|
|-2-2--9-9-9-9-5-5-5-7-7-5-5-|-2-2--9-9-9-9-5-5-5-7-7-10-10-|
|-2-2--9-9-9-9-5-5-5-7-7-5-5-|-2-2--9-9-9-9-5-5-5-7-7-10-10-|

[Verse]
|----------------------------|------------------------------|
|----------------------------|------------------------------|
|----------------------------|------------------------------|
|-2-2------------------------|-2-2--------------------------|
|-2-2------------------------|-2-2--------------------------|
|-2-2--9-9-9-9-5-5-5-7-7-5-5-|-2-2--9-9-9-9-5-5-5-7-7-10-10-|
PM     . . . . . . . . . . .        . . . . . . . . . . . .
[ Tab from: http://www.guitartabs.cc/tabs/d/disturbed/mistress_tab_ver_4.html ]
[Chorus]
|----------------------------|------------------------------|
|----------------------------|------------------------------|
|----------------------------|------------------------------|
|-9\----------X-X-4--4-4-X-X-|-0-------------X-X-5--5-5-2---|
|-9\----------X-X-4--5-4-X-X-|-0-------------X-X-5--7-5-2---|
|-9\----------X-X-4--4-4-X-X-|-0-------------X-X-5--5-5-2---|
                             PM                       .
|----------------------------|
|----------------------------|
|----------------------------|
|-6-6--6--6-6-5-5-5-5-5-5-5--|
|-6-6--7--6-6-5-5-7-7-5-5-5--|
|-6-6--6--6-6-5-5-5-5-5-5-5--|

[Bridge]
|----------|-----------------------------------------------------------|
|----------|-----------------------------------------------------------|
|-10-------|-----------------------------------------------------------|
|-9--------|---9--------------12---11------11------5----4--4--4--------|
|-9--------|-------10-9---9------------12----------5----4--4----5-4----|
|----------|-9---9------9---9----9------------5---------4--------------|
--ring out--

[Lyrics]

I stand on the brink of your mind/
Living inside a nightmare from which/
I just cannot awaken/ Stand on the
edge of your life/ Just give me
another moment/ From which I will
never awaken

chorus: Stand on the brink of my own
demise/ Fallen again for another/
Mistress of burden/ To idolize/ Hoping
that one of them will decide/ To let me in

To stand on the edge of the knife/ Cutting
through the nightmare from which/ I just
cannot awaken/ Stand on the edge of the 
night/ Living inside a moment/ From which I
will never awaken

chorus

Look at what you've don to me/ You've 
become my enemy/ Poisoning the world
for me/ Take away my everything/
Weakened as I am

chorus

well..that's it for this kick-ass song...I'm just 15 and this
is one of my first tabs...please give me some feedback/advice.
Comments