Disturbed - Mistress Chords & Tabs

 

Mistress Chords & Tabs

Disturbed Chords & Tabs

Version: 1 Type: Bass Tab 0 ratings
1 star 2 stars 3 stars 4 stars 5 stars
comments

Mistress Bass Tab

   
Tuning-Bb, Db, Ab, Db, Gb
Intro
Gb-----------------------------------------------------------|
Db-----------------------------------------------------------|  x4
Ab-----------------------------------------------------------|
Db-2-2--9-9-9-9-5-5-5-7-7-5-2--2-2--9-9-9-9-5-5-5-7-7-10-10--|
Bb-----------------------------------------------------------|

Verse
Gb--------------------------------------------------------|
Db--------------------------------------------------------|
Ab--------------------------------------------------------|
Db-2-2----2-2----2-2---2-2----2-2--9-9-9-9-5-5-5-7-7-5-2--|
Bb--------------------------------------------------------|

Gb-----------------------------------------------------------|
Db-----------------------------------------------------------|  x2
Ab-----------------------------------------------------------|
Db-2-2--9-9-9-9-5-5-5-7-7-5-2--2-2--9-9-9-9-5-5-5-7-7-10-10--|
Bb-----------------------------------------------------------|

Chorus
Gb------------------------------------------------------|
Db------------------------------------------------------|  x2
Ab--------------------------------5---------------------|
Db-9\--4-4-4--0--5--5--5-2--9\--4---4--0--0--5--5--5-5--|
Bb------------------------------------------------------|

Gb-----------------------------------|
Db-----------------------------------|
Ab-----------------------------------|
Db-6-6--6--6-6-6-5-5--5--5--5-5-5-5--|
Bb-----------------------------------|

Gb-----------------------------------------------------------|
Db-----------------------------------------------------------|  x2
Ab-----------------------------------------------------------|
Db-2-2--9-9-9-9-5-5-5-7-7-5-2--2-2--9-9-9-9-5-5-5-7-7-10-10--|
Bb-----------------------------------------------------------|

Verse
Gb--------------------------------------------------------|
Db--------------------------------------------------------|
Ab--------------------------------------------------------|
Db-2-2----2-2----2-2---2-2----2-2--9-9-9-9-5-5-5-7-7-5-2--|
Bb--------------------------------------------------------|

Gb-----------------------------------------------------------|
Db-----------------------------------------------------------|  x2
Ab-----------------------------------------------------------|
Db-2-2--9-9-9-9-5-5-5-7-7-5-2--2-2--9-9-9-9-5-5-5-7-7-10-10--|
Bb-----------------------------------------------------------|
[ Tab from: http://www.guitartabs.cc/tabs/d/disturbed/mistress_btab.html ]
Gb------------------------------------------------------|
Db------------------------------------------------------|  x2
Ab--------------------------------5---------------------|
Db-9\--4-4-4--0--5--5--5-2--9\--4---4--0--0--5--5--5-5--|
Bb------------------------------------------------------|

Gb------------------------------------------|
Db------------------------------------------|
Ab-------------------------------------2~~--|
Db-6--6--6--6--6-6--5--5--5--5--5-5-5-------|
Bb------------------------------------------|

Gb--------------------------------------------------------|
Db----------------------------------2---2--2----2---2--2--|
Ab-2~------------------5---5-5-4--------------------------|
Db--------------------------------------------------------|
Bb--------------------------------------------------------|

Gb---------------------------------------------|
Db------------------------------------------4--|
Ab---------------------4--2--2--2----2-2-2-----|
Db-5---5--5-5--0---4---------------------------|
Bb---------------------------------------------|

Gb--------------------------------------------------|
Db-5--5------------------------------------------4--|
Ab------------5----------------4-5--2--2--2----2----|
Db-------5--5---5--4--4--4---4---------------4------|
Bb--------------------------------------------------|

Gb------------------------------------------------------|
Db-----------4--5--5------------------------------------|
Ab-2--2--2-----------------5----------------------------|
Db--------------------5--5---5--0--0--0--4--4--4--4--4--|
Bb------------------------------------------------------|

Gb-----------------------------|
Db-----------------------------|
Ab-----------------------------|
Db-2-2-----2-2-----2-2----2-2--|
Bb-----------------------------|

Gb------------------------------------------------------|
Db------------------------------------------------------|  x2
Ab--------------------------------5---------------------|
Db-9\--4-4-4--0--5--5--5-2--9\--4---4--0--0--5--5--5-5--|
Bb------------------------------------------------------|

Gb--------------------------------------|
Db--------------------------------------|
Ab--------------------------------------|
Db-6--6--6--6--6-6--5--5--5--5-5-5-5-5--|
Bb--------------------------------------|

Outro  (3:21)
Gb-----------------------------------------------------------|
Db-----------------------------------------------------------|  x4
Ab-----------------------------------------------------------|
Db-2-2--9-9-9-9-5-5-5-7-7-5-2--2-2--9-9-9-9-5-5-5-7-7-10-10--|
Bb-----------------------------------------------------------|

Gb------------------|
Db------------------|
Ab------------------|
Db-2-2--------------|
Bb------------------|

Thanks, please rate it after you learn it.
Comments