Disturbed - Meaning Of Life Chords & Tabs

 

Meaning Of Life Chords & Tabs

Disturbed Chords & Tabs

Version: 4 Type: Tab 0 ratings
1 star 2 stars 3 stars 4 stars 5 stars
comments

Meaning Of Life Tab

DISTURBED -meaning of life                  tune down half step  Eb Ab Db Gb Bb eb
i will have a series of disturbed songs comming out........prolly the whole sickness cd....i can
also do bass tabs for all the songs on the sickness........my names ryan..........u_freak66@hotmail.com
email me.......thanx tell me how i did

and i have all the correct tunings for these songs

play this 3 times
 intro
  |------|
  |------|
  |------|
  |----2-|
  |-2--2-|
  |-0--0-|
pm  .

/////////////////////

  |----------|--------------------|---------------------------------------------------|
  |----------|--------------------|---------------------------------------------------|
  |----------|--------------------|---------------------------------------------------|
  |----2-----|--------------------|---------------------------------------------------|
  |-2--2-----|--------x\\x\\------|-3-2-----------------------------------------5----7|
  |-0--0-----|-0------x\\x\\------|-1-0-0-0--0-0-0-0---0-0-0--0--0--0--0--0-0-0-3----5|
pm  .               pick slide            .  . . . .   . . .  .  .  .  .  . . .

  |---------------------------------------------|
  |---------------------------------------------|
  |---------------------------------------------|
  |---------------------------------------------|
  |-3-2--------------------------3--2---3--5--6-|    repeat through verse
  |-1-0--0--0--0-0-0-0----0-0-0--1--0-0-1--3--4-|
pm          .  . . . .    . . .
[ Tab from: http://www.guitartabs.cc/tabs/d/disturbed/meaning_of_life_tab_ver_4.html ]
  |---------------------------------------------|  |----------------------------------------|
  |---------------------------------------------|  |----------------------------------------|
  |---------------------------------------------|  |----------------------------------------|
  |---------------------------------------------|x2|----------------------------------------|
  |---------------------------------------------|  |-2--3--2--3--2---2--3--2--3--2---2--3--4|
  |-0--1--0--1--0---0--1--0--1--0---0--1--3~----|  |-0--1--0--1--0---0--1--0--1--0---0--1--3|x2
                                    trill the 3's
bridge
 |---------------------------------------------------------------------|
 |---------------------------------------------------------------------|
 |---------------------------------------------------------------------|
 |-2---let ring with feedback-2--2---2--2-----------2----2--2---2--2--3|
 |-2--------------------------2--2---2--2-----------2----2--2---2--2--3|
 |-0--------------------------0--0---0--0-----0--0--0----0--0---0--0--1| x8
pm                                            .  .

 |---------------------------------------------------------|
 |---------------------------------------------------------|
 |---------------------------------------------------------|
 |---------------------------------------------------------|
 |3-2------------------------------------------------------|
 |1-0--0--0--0-0-0-0----0-0-0--0--0--0--0--0-0-0-0----0-0-0|x3
pm     .  .  . . . .    . . .  .  .  .  .  . . . .    . . .

 |---------------------------------------------------------|
 |---------------------------------------------------------|
 |---------------------------------------------------------|
 |---------------------------------------------------------|
 |3-2--------------------------3--2-----3-----5------6-----|
 |1-0--0--0--0-0-0-0----0-0-0--1--0--0--1-----3------4-----|
pm     .  .  . . . .    . . .
Comments