Disturbed - Meaning Of Life Chords & Tabs

 

Meaning Of Life Chords & Tabs

Disturbed Chords & Tabs

Version: 3 Type: Tab 0 ratings
1 star 2 stars 3 stars 4 stars 5 stars
comments

Meaning Of Life Tab

Disturbed - Meaning Of Life
Submitted By: Sqweeky
EMail: Blindside831@aol.com
Album: The Sickness 
Transcribed By: Bryan Bramlett (bryanmb87@aol.com) 

Tuning: 1/2 Step Down, Drop D 

INTRO: 
|-----------------------| 
|-----------------------| 
|-----------------------| 
|-X-2--X-2--X-2--X-2--2-| 
|-X-2--X-2--X-2--X-2--2-| 
|-X-2--X-2--X-2--X-2--2-| 
[ Tab from: http://www.guitartabs.cc/tabs/d/disturbed/meaning_of_life_tab_ver_3.html ]
VERSE: 
|--------------------------------------------------------| 
|--------------------------------------------------------| 
|--------------------------------------------------------| 
|-3-2--------------------/5-7-3-2------------3-2---3-5-6-| 
|-3-2--------------------/5-7-3-2------------3-2---3-5-6-| 
|-3-2-22-2222-22-2-2-2-22/5-7-3-2-22-2222-22-3-2-2-33556-| 
PM    .. .... .. . . . ..         .. .... ..     .  . . 

BRIDGE: 
|-----------------------------| 
|-----------------------------| 
|-----------------------------| 
|-----------------------------| 
|-----------------------------| 
|-2-3-2-3-2--2-3-2-3-2--2-3-5-| 

BRIDGE 2: 
|-----------------------------| 
|-----------------------------| 
|-----------------------------| 
|-2-3-2-3-2--2-3-2-3-2--2-3-5-| 
|-2-3-2-3-2--2-3-2-3-2--2-3-5-| 
|-2-3-2-3-2--2-3-2-3-2--2-3-5-| 
PM. . . .    . . . .    . . 

FILL: 
|---| 
|---| 
|---| 
|-2-| 
|-2-| 
|-2-| 

INTERLUDE: 
|-------------------------------| 
|-------------------------------| 
|----------------------------10-| 
|-2-2--2-2--222--2-2--2-2-/9-10-| 
|-2-2--2-2--222--2-2--2-2-/9--8-| 
|-2-2--2-2--222--2-2--2-2-/9----| 
PM
Comments