Disturbed - Loading The Weapon Chords & Tabs

 

Loading The Weapon Chords & Tabs

Disturbed Chords & Tabs

Version: 3 Type: Tab 0 ratings
1 star 2 stars 3 stars 4 stars 5 stars
comments

Loading The Weapon Tab

Band- Disturbed
Song- Loading The Weapon
Album- Music As A Weapon II
Tuning- Tune down 1/2 step:Drop D

Intro/Clean
|-------------------------------------------------------------------|
|-------------------------------------------------------------------|
|-------------------------------------------------------------------|
|---8---5------7--5---5---8---5------7--5-------8---5------7--5---5-|
|-5---5---5--6------6---5---5---5--6----------5---5---5--6------6---|
|-----------------------------------------5p0-----------------------|

Intro/Continued
|--------------------------|
|--------------------------|
|--------------------------|
|--------------------------|
|---------6-6---6---5--3-3-|
|-0--5--6-----6---0--------|
[ Tab from: http://www.guitartabs.cc/tabs/d/disturbed/loading_the_weapon_tab_ver_3.html ]
|------------------------------------------|
|------------------------------------------|
|------------------------------------------|
|-58885-x-x-57775-5*-x-x-666666-x-x-666666-|
|-55555-x-x-55555-5*-x-x-666666-x-x-666666-|
|-55555-x-x-55555-5*-x-x-666666-x-x-666666-|

|---------------------------------------------------------------------------|
|---------------------------------------------------------------------------|
|---------------------------------------------------------------------------|
|-1-1-88-8-7-x-x-3-3--5x5x5-778877-1-1-88-87-3-5x5x5x5-000-1-1-888-7-555555-|
|-1-1-88-8-7-x-x-3-3--5x5x5-778877-1-1-88-87-3-5x5x5x5-000-1-1-888-7-555555-|
|-1-1-88-8-7-x-x-3-3--5x5x5-778877-1-1-88-87-3-5x5x5x5-000-1-1-888-7-555555-|
P.M.                                                   ...

|---6-6-6-6-6------------------------|
|---------------10-10-10-10-10-10-10-|
|------------------------------------|
|-0-----------0----------------------|
|-0-----------0----------------------|
|-0-----------0----------------------|

Outro
|---------------------|
|---------------------|
|---------------------|
|-0--0-0--0-0--0-0--0-|
|-0--0-0--0-0--0-0--0-|
|-0--0-0--0-0--0-0--0-|

Those are all the parts, you just have to put them in order. ENJOY!!!!!
Comments