Disturbed - Liberate Chords & Tabs

 

Liberate Chords & Tabs

Disturbed Chords & Tabs

Version: 5 Type: Tab 0 ratings
1 star 2 stars 3 stars 4 stars 5 stars
comments

Liberate Tab

   
Liberate by: Disturbed
Tab by: Aaron Meredith

Tuning: Drop D, 1/2 Step Down (Db,Ab,Db,Gb,Bb,Eb)

h = hammer-on
x = play muted string
* = harmonic


Intro:
|-----------------------|
|-----------------------|
|-----------------------|x8
|-----------------------|
|-0h2-2-22-2222222------|
|-0h2-2-22-2222222------|

Verse:
|---------------------------------------------------------------|
|---------------------------------------------------------------|
|---------------------------------------------------------------|
|---------------------------------------------------------------|
|-52-2-02-222222233-3-3-388-8-8-8-82-2-02-222222252-2-02-222222-|
|-52-2-02-222222233-3-3-388-8-8-8-82-2-02-222222252-2-02-222222-|

|------------------------------------------------------------|
|------------------------------------------------------------|
|------------------------------------------------------------|
|------------------------------------------------------------|
|-52-2-02-222222233-3-3-388-8-8-8-82-2-02-222222252-2-02-2-0-|
|-52-2-02-222222233-3-3-388-8-8-8-82-2-02-222222252-2-02-2-0-|

Bridge:
|-----------------------------------------------------------------|
|-----------------------------------------------------------------|
|-----------------------------------------------------------------|
|-----------------------------------------------------------------|
|-22222222222222220000009999999910101010101010101010101010101010--|
|-22222222222222220000009999999910101010101010101010101010101010--|

------------------|
------------------|
------------------|
------------------|
-5555555599999999-|
-5555555599999999-|

Fill:
|-----------------|
|-----------------|
|-----------------|
|-7-7-7--xx-7-7-7-|
|-7-7-7--xx-7-6-6-|
|-7-7-7--xx-7-7-7-|


Chorus:
|------------------------    ------------------------|
|------------------------    ------------------------|
|------------------------x3  ------------------------|
|-5-55-4-44-4--5-5-4-2---    -0-00-0-00-0-4-44-4-4---|
|-3-33-3-33-3--2-2-2-2-5-    -0-00-0-00-0-2-22-2-2-5-|
|--------------2-2-2-2-2-    ----------------------5-|


Pre-verse:
|-----------------------|
|-----------------------|
|-----------------------|x4
|-----------------------|
|-0h2-2-22-2222222------|
|-0h2-2-22-2222222------|

Verse:
|---------------------------------------------------------------|
|---------------------------------------------------------------|
|---------------------------------------------------------------|
|---------------------------------------------------------------|
|-52-2-02-222222233-3-3-388-8-8-8-82-2-02-222222252-2-02-222222-|
|-52-2-02-222222233-3-3-388-8-8-8-82-2-02-222222252-2-02-222222-|
[ Tab from: http://www.guitartabs.cc/tabs/d/disturbed/liberate_tab_ver_5.html ]
|------------------------------------------------------------|
|------------------------------------------------------------|
|------------------------------------------------------------|
|------------------------------------------------------------|
|-52-2-02-222222233-3-3-388-8-8-8-82-2-02-222222252-2-02-2-0-|
|-52-2-02-222222233-3-3-388-8-8-8-82-2-02-222222252-2-02-2-0-|


Bridge:
|-----------------------------------------------------------------|
|-----------------------------------------------------------------|
|-----------------------------------------------------------------|
|-----------------------------------------------------------------|
|-22222222222222220000009999999910101010101010101010101010101010--|
|-22222222222222220000009999999910101010101010101010101010101010--|

------------------|
------------------|
------------------|x2
------------------|
-5555555599999999-|
-5555555599999999-|

Fill:
|-----------------|
|-----------------|
|-----------------|
|-7-7-7--xx-7-7-7-|
|-7-7-7--xx-7-6-6-|
|-7-7-7--xx-7-7-7-|


Chorus:
|------------------------    ------------------------|
|------------------------    ------------------------|
|------------------------x3  ------------------------|
|-5-55-4-44-4--5-5-4-2---    -------------4-44-4-4---|
|-3-33-3-33-3--2-2-2-2-5-    -0-00-0-00-0-2-22-2-2-5-|
|--------------2-2-2-2-2-    -0-00-0-00-0----------5-|


Interlude:
|---------------------------------------------------------|
|---------------------------------------------------------|
|-----------2--------------7*-----------2-----------------|
|---------3-------------7*------------3-------------7*----|
|-2-2-2-2-----2-2-2--7*-------2-2-2-2-----2-2-2--7*----7*-|
|-2-2-2-------2-2-2-----------2-2-2-------2-2-2-----------|

Interlude 2:
|--------------------------------------|
|--------------------------------------|
|--------------2--------------------7*-|
|------------3-------------7*----7*----|
|-2-2-2-xx-2-----2-2-2-xx-----7*-------|
|-2-2-2-xx-------2-2-2-xx--------------|

--------------------------------------|
--------------------------------------|
--------------2-----------------------|x3
------------3-------------7*----7*----|
-2-2-2-xx-2-----2-2-2-xx-----7*----7*-|
-2-2-2-xx-------2-2-2-xx--------------|


Chorus fill:
|----------------|
|----------------|
|----------------|x2
|-5--4--5--4-2---|
|-3--3--2--2-2-5-|
|-------2--2-2-2-|


Chorus:
|------------------------------------------------|
|------------------------------------------------|
|------------------------------------------------|
|-5-55-4-44-4--5-5-4-2----------------4-44-4-4---|
|-3-33-3-33-3--2-2-2-2-5--0-00-0-00-0-2-22-2-2-5-|
|--------------2-2-2-2-2--0-00-0-00-0----------5-|


Ending Chorus:
|------------------------   -----------------------------------|
|------------------------   -----------------------------------|
|------------------------x3 -----------------------------------|
|-5-55-4-44-4--5-5-4-2---   -----------------------------------|
|-3-33-3-33-3--2-2-2-2-5-   -0-00-0-00-0--0-2-0-2-0-2-0-2--0-2-|
|--------------2-2-2-2-2-   -0-00-0-00-0-----------------------|


Outro:
|-----------------------|
|-----------------------|
|-----------------------|x8
|-----------------------|
|-0h2-2-22-2222222------|
|-0h2-2-22-2222222------|
Comments