Disturbed - Liberate Chords & Tabs

 

Liberate Chords & Tabs

Disturbed Chords & Tabs

Version: 2 Type: Tab 0 ratings
1 star 2 stars 3 stars 4 stars 5 stars
comments

Liberate Tab

   
Disturbed
Liberate

Tune: Db Ab Db Gb Bb Eb

h = harmonic
\ = slide down
p = pull off

Intro:
|-----------------------------| |-----------------------------| |-----|
|-----------------------------| |-----------------------------| |-----|
|-----------------------------| |-----------------------------| |-----|
|-----------------------------| |-0-2--2-2-2-2--2-2-2-0-2-2-2-| |-----|
|-----------------------------| |-0-2--2-2-2-2--2-2-2-0-2-2-2-| |-----|
|-0-2--2-2-2-2--2-2-2-0-2-2-2-| |-0-2--2-2-2-2--2-2-2-0-2-2-2-| |-12\-|
 

|----------------------------------------------------
|----------------------------------------------------
|----------------------------------------------------
|----------------------------------------------------
|-0-2-2-2-2--2-2-2-0-2-2-2-2-3-3-3-3-8-8-8-8-8-8-8-8-
|-0-2-2-2-2--2-2-2-0-2-2-2-2-3-3-3-3-8-8-8-8-8-8-8-8-
 
 ---------------------------------------------------|
 ---------------------------------------------------|
 ---------------------------------------------------|
 ---------------------------------------------------|
 -0-2-2-2-2--2-2-2-0-2-2-2-0-2-2-2-2--2-2-2-0-2-2-2-|
 -0-2-2-2-2--2-2-2-0-2-2-2-0-2-2-2-2--2-2-2-0-2-2-2-|

|-----------------------------------------|
|-----------------------------------------|
|-----------------------------------------|
|---------------------------------------0-|
|-0-2-2-2-2--2-2-2-0-2-2-2-0-2-2-2-2--2-0-|
|-0-2-2-2-2--2-2-2-0-2-2-2-0-2-2-2-2--2-0-|

|---------------------------------------------------------------------------------------
|---------------------------------------------------------------------------------------
|---------------------------------------------------------------------------------------
|---------------------------------------------------------------------------------------
|---------------------------------------------------------------------------------------
|-2-2-2-2-2-2-2-2-2-2-2-2-2-2-2\1-1-1-1-1-1/9-9-9-9-9-9-9-9-9-9-10-10-10-10-10-10-10-10-

 --------------------------------------------| |------------------|
 --------------------------------------------| |------------------|
 --------------------------------------------| |------------------|
 --------------------------------------------| |-7-7-7--7-7-7-----|
 --------------------------------------------| |-7-7-7--6-6-6-----|
 10-10-10-10-10-10-5-5-5-5-5-5/9-9-9-9-9-9-9-| |-7-7-7--7-7-7--12\|

|----------------------------------|
|----------------------------------|
|-5-5-5-5-5-5-5-5------------------|
|-5-5-5-4-4-4-4-4--5-5-5-4-4-2-2-2-|
|-3-3-3-3-3-3-3-3--2-2-2-2-2-2-2-2-|
|------------------2-2-2-2-2-2-2-2-|

|-----------------------------|
|-----------------------------|
|-2--2--4-4--4-4--4-4--4-4----|
|-0--0--4-4--4-4--4-4--4-4--5-|
|-0--0--2-2--2-2--2-2--2-2--5-|
|-0--0----------------------5-|
[ Tab from: http://www.guitartabs.cc/tabs/d/disturbed/liberate_tab_ver_2.html ]
|-----------------------------| |-----------------------------| |-------------|
|-----------------------------| |-----------------------------| |-------------|
|-----------------------------| |-----------------------------| |-------------|
|-----------------------------| |-0-2--2-2-2-2--2-2-2-0-2-2-2-| |-------------|
|-----------------------------| |-0-2--2-2-2-2--2-2-2-0-2-2-2-| |-2x-2x-2x-2x-|
|-0-2--2-2-2-2--2-2-2-0-2-2-2-| |-0-2--2-2-2-2--2-2-2-0-2-2-2-| |-2x-2x-2x-2x-|
                                                                   ^use delay
|----------------------------------------------------
|----------------------------------------------------
|----------------------------------------------------
|----------------------------------------------------
|-0-2-2-2-2--2-2-2-0-2-2-2-2-3-3-3-3-8-8-8-8-8-8-8-8-
|-0-2-2-2-2--2-2-2-0-2-2-2-2-3-3-3-3-8-8-8-8-8-8-8-8-
 
 ---------------------------------------------------|
 ---------------------------------------------------|
 ---------------------------------------------------|
 ---------------------------------------------------|
 -0-2-2-2-2--2-2-2-0-2-2-2-0-2-2-2-2--2-2-2-0-2-2-2-|
 -0-2-2-2-2--2-2-2-0-2-2-2-0-2-2-2-2--2-2-2-0-2-2-2-|

|-----------------------------------------|
|-----------------------------------------|
|-----------------------------------------|
|---------------------------------------0-|
|-0-2-2-2-2--2-2-2-0-2-2-2-0-2-2-2-2--2-0-|
|-0-2-2-2-2--2-2-2-0-2-2-2-0-2-2-2-2--2-0-|

|---------------------------------------------------------------------------------------
|---------------------------------------------------------------------------------------
|---------------------------------------------------------------------------------------
|---------------------------------------------------------------------------------------
|---------------------------------------------------------------------------------------
|-2-2-2-2-2-2-2-2-2-2-2-2-2-2-2\1-1-1-1-1-1/9-9-9-9-9-9-9-9-9-9-10-10-10-10-10-10-10-10-

 --------------------------------------------| |------------------|
 --------------------------------------------| |------------------|
 --------------------------------------------| |------------------|
 --------------------------------------------| |-7-7-7--7-7-7-----|
 --------------------------------------------| |-7-7-7--6-6-6-----|
 10-10-10-10-10-10-5-5-5-5-5-5/9-9-9-9-9-9-9-| |-7-7-7--7-7-7--12\|

|----------------------------------|
|----------------------------------|
|-5-5-5-5-5-5-5-5------------------|
|-5-5-5-4-4-4-4-4--5-5-5-4-4-2-2-2-|
|-3-3-3-3-3-3-3-3--2-2-2-2-2-2-2-2-|
|------------------2-2-2-2-2-2-2-2-|

|-----------------------------|
|-----------------------------|
|-2--2--4-4--4-4--4-4--4-4----|
|-0--0--4-4--4-4--4-4--4-4--5-|
|-0--0--2-2--2-2--2-2--2-2--5-|
|-0--0----------------------5-|

|--------------------------------------------------------|
|--------------------------------------------------------|
|------------2------------7h------------2----------------|
|-2-2-2----3---2-2-2----7h---2-2-2----3---2-2-2----7h----|
|-2-2-2--2-----2-2-2--7h-----2-2-2--2-----2-2-2--7h--7h--|
|-2-2-2--------2-2-2---------2-2-2--------2-2-2----------|

|-------------------------------------------------------------------|
|-------------------------------------------------------------------|
|--------------2----------------7h--------------2-------------------|
|-2-2-2------3---2-2-2----7h--7h---2-2-2------3---2-2-2----7h--7h---|
|-2-2-2-xx-2-----2-2-2-xx---7h-----2-2-2-xx-2-----2-2-2-xx---7h--7h-|
|-2-2-2----------2-2-2-------------2-2-2----------2-2-2-------------|

|--------------------------------|
|--------------------------------|
|-5--5------------5--5-----------|
|-5--4---5--4-2p--5--4---5--4-2p-|
|-3--3---2--2-----3--3---2--2----|
|--------2--2------------2--2----|

|----------------------------------|
|----------------------------------|
|-5-5-5-5-5-5-5-5------------------|
|-5-5-5-4-4-4-4-4--5-5-5-4-4-2-2-2-|
|-3-3-3-3-3-3-3-3--2-2-2-2-2-2-2-2-|
|------------------2-2-2-2-2-2-2-2-|

|---------------------------------------|
|---------------------------------------|
|-2--2--4x-4--4x-4--4x-4--4x-4----------|
|-0--0--4x-4--4x-4--4x-4--4x-4--5-5-5-5-|
|-0--0--2x-2--2x-2--2x-2--2x-2--5-5-5-5-|
|-0--0--------------------------5-5-5-5-|

|----------------------------------|
|----------------------------------|
|-5-5-5-5-5-5-5-5------------------|
|-5-5-5-4-4-4-4-4--5-5-5-4-4-2-2-2-|
|-3-3-3-3-3-3-3-3--2-2-2-2-2-2-2-2-|
|------------------2-2-2-2-2-2-2-2-|

|---------------------------------|
|---------------------------------|
|-2--2----------------------------|
|-0--0--------------------5-5-5-5-|
|-0--0---0-2-0-2-0-2-0-2--5-5-5-5-|
|-0--0--------------------5-5-5-5-|

|-----------------------------| |-----------------------------| |---------|
|-----------------------------| |-----------------------------| |---------|
|-----------------------------| |-----------------------------| |---------|
|-----------------------------| |-0-2--2-2-2-2--2-2-2-0-2-2-2-| |-0-2-0-2-|
|-----------------------------| |-0-2--2-2-2-2--2-2-2-0-2-2-2-| |-0-2-0-2-|
|-0-2--2-2-2-2--2-2-2-0-2-2-2-| |-0-2--2-2-2-2--2-2-2-0-2-2-2-| |-0-2-0-2-|

 Thats it, have fun.
Comments